Heartbreak a Stranger - Bob Mould (TUNING: E-B-Db-Gb-Ab-Db low to high)

(/) Slide Up  (\) Slide Down  (h) Hammer On  (p) Pull Off  (b) Bend (r) Release (v) Vibrato
E|-------------------------------0-----------------
B|--------3\2p0-------0--0h2--------5--------------
G|----------------------------0-----------------0--
D|--------0------0h3-----0-------------------0-----
A|--0--2----------------------0--------0-----------
E|--0--2----------------------------------0--------



E|--0---0---0----0--0----0--0----0----0--0--0--0--
B|--10--10--7\5--5--3----3--3/5--5/7--5--5--5--2--
G|--0---0---0----0--0----0--0----0----0--0--0--0--
D|--10--10--7-5--5--0h3--3--3-5--5-7--5--5--5--0--
A|--0-------0---------------0----0----0--0--0--2--
E|--0-------0---------------0----0----0--0--0--2--



E|--0--0--0--0--0--0--0--0--0--0--0----0----0----0--
B|--2--2--0--0--0--0--0--0--0--0--0----0----0----0--
G|--0--0--2--2--2--2--2--2--2--2--4----2----0----2--
D|--2--2--0--0--0--0--0--0--0--0--0----0----0----0--
A|--0--0--2--2--2--2--2--2--2--2--2----2----2----2--
E|--2--2--------------------------------------------
http://www.guitartabcreator.com
Guitar Tab Creator is intended to store guitar tab created through the tool. It currently does not support in-line text editing. Any text you place in here will be lost. If you need to comment on your tab, please use the "Tab Notes" section located below.