Låt 2

(/) Slide Up  (\) Slide Down  (h) Hammer On  (p) Pull Off  (b) Bend (r) Release (v) Vibrato


Intro

D|--------------------------------------------------------------------|
A|--------------------------------------------------------------------|
F|-------------3---------------------3--------------------------------|
C|--0--0--0----3--2--1----0--0--0----3--2--1--------------------------|
G|--0--0--0----1--2--1----0--0--0----1--2--1--------------------------|
C|--0--0--0-------2--1----0--0--0-------2--1--------------------------| x3



D|--------------------------------------------------------------------|
A|--------------------------------------------------------------------|
F|--0---------------------------------0-------------------------------|
C|--0---------------------------------0-------------------------------|
G|--0---------------------------------0-------------------------------|
C|

Mini-intro
(muted)
D|----------------------------------------------------------------------|
A|----------------------------------------------------------------------|
F|----------------------------------------------------------------------|
C|----------------------------------------------------------------------|
G|----------------------------------------------------------------------|
C|--0-10-12-0-13-12-0-10-12-0-15-13-0-10-12-0-13-12-0-10-12-0-8-10-7-8--| x5


Verse 1

D|----------------------------------------------------------------------|
A|----------------------------------------------------------------------|
F|----5/7-101010101010-12121212----5/7-101010101010-9-9-9-9-------------|
C|--0-3/5------------------------0-3/5----------------------------------|
G|--0-3/5-8-8-8-8-8-8--10101010--0-3/5-8-8-8-8-8-8--7-7-7-7-------------|
C|--0-3/5------------------------0-3/5----------------------------------|



D|----------------------------------------------------------------------|
A|----------------------------------------------------------------------|
F|----5/7-101010101010-12121212----5/7-121212121212-14141414------------|
C|--0-3/5------------------------0-3/5----------------------------------|
G|--0-3/5-8-8-8-8-8-8--10101010--0-3/5-101010101010-12121212------------|
C|--0-3/5------------------------0-3/5----------------------------------| x3


Chorus 1

D|---------------------------------------------------------------------------|
A|---------------------------------------------------------------------------|
F|----10---10---10---10---9---9---9---9---10---10---10---10---9---9---9---9--|
C|----10---10---10---10---9---9---9---9---10---10---10---10---9---9---9---9--|
G|--8----8----8----8----7---7---7---7-----8----8----8----8----7---7---7---7--|
C|--------------------------------------8----8----8----8----7---7---7---7----| x2



D|----------------------------------------------------------------------------|
A|----------------------------------------------------------------------------|
F|--5--5-5--5--5-5--5-5--4--4-4--4--4-4--4-4--10-1010-10-1010-1010-5--5--9--9-|
C|--3--3-3--3--3-3--3-3--2--2-2--2--2-2--2-2--8--8-8--8--8-8--8-8--3--3--7--7-|
G|--3--3-3--3--3-3--3-3--2--2-2--2--2-2--2-2--8--8-8--8--8-8--8-8--3--3--7--7-|
C|--3--3-3--3--3-3--3-3--2--2-2--2--2-2--2-2--8--8-8--8--8-8--8-8--3--3--7--7-| x2


Verse 2

D|----------------------------------------------------------------------|
A|----------------------------------------------------------------------|
F|----5/7-101010101010-12121212----5/7-101010101010-9-9-9-9-------------|
C|--0-3/5------------------------0-3/5----------------------------------|
G|--0-3/5-8-8-8-8-8-8--10101010--0-3/5-8-8-8-8-8-8--7-7-7-7-------------|
C|--0-3/5------------------------0-3/5----------------------------------|



D|----------------------------------------------------------------------|
A|----------------------------------------------------------------------|
F|----5/7-101010101010-12121212----5/7-121212121212-14141414------------|
C|--0-3/5------------------------0-3/5----------------------------------|
G|--0-3/5-8-8-8-8-8-8--10101010--0-3/5-101010101010-12121212------------|
C|--0-3/5------------------------0-3/5----------------------------------| x3


Chorus 2

D|---------------------------------------------------------------------------|
A|---------------------------------------------------------------------------|
F|----10---10---10---10---9---9---9---9---10---10---10---10---9---9---9---9--|
C|----10---10---10---10---9---9---9---9---10---10---10---10---9---9---9---9--|
G|--8----8----8----8----7---7---7---7-----8----8----8----8----7---7---7---7--|
C|--------------------------------------8----8----8----8----7---7---7---7----| x2



D|----------------------------------------------------------------------------|
A|----------------------------------------------------------------------------|
F|--5--5-5--5--5-5--5-5--4--4-4--4--4-4--4-4--10-1010-10-1010-1010-5--5--9--9-|
C|--3--3-3--3--3-3--3-3--2--2-2--2--2-2--2-2--8--8-8--8--8-8--8-8--3--3--7--7-|
G|--3--3-3--3--3-3--3-3--2--2-2--2--2-2--2-2--8--8-8--8--8-8--8-8--3--3--7--7-|
C|--3--3-3--3--3-3--3-3--2--2-2--2--2-2--2-2--8--8-8--8--8-8--8-8--3--3--7--7-| x2


Bridge

D|----------------------------------------------------------------------------|
A|----------------------------------------------------------------------------|
F|--5--------------------4--------------------10-------------------5--------9-|
C|--3--------------------2--------------------8--------------------3--------7-|
G|--3--------------------2--------------------8--------------------3--------7-|
C|--3--------------------2--------------------8--------------------3--------7-| x2


Breakdown

D|-------------------------------------------------------------------------------|
A|-------------------------------------------------------------------------------|
F|-------------------------------------------------------------------------------|
C|-------------------------------------------------------------------------------|
G|-------------7--8-------------12-10-------------7--8///13-12-10----------------|
C|--0---0---0--------0---0---0---------0---0---0------------------13-12-10-8-7---| x3


last time
D|-----------------------------------------------------------------------------------------------|
A|-----------------------------------------------------------------------------------------------|
F|-----------------------------------------------------------------------------------------------|
C|-----------------------------------------------------------------------------------------0-----|
G|---------------7--8-------------12-10-------------7--8///13-12-10------------------------0-----|
C|----0---0---0--------0---0---0---------0---0---0------------------13-12-10-8-7--5--3--2--0-----|



http://www.guitartabcreator.com
Guitar Tab Creator is intended to store guitar tab created through the tool. It currently does not support in-line text editing. Any text you place in here will be lost. If you need to comment on your tab, please use the "Tab Notes" section located below.