Låt 1

(/) Slide Up  (\) Slide Down  (h) Hammer On  (p) Pull Off  (b) Bend (r) Release (v) Vibrato

Intro

D|------------------------------------------------------------------------|
A|------------------------------------------------------------------------|
F|------------------------------------------------------------------------|
C|------------------------------------------------------------------------|
G|------------------------------7-8-7------------------------------7-5----|
C|--0-12-15-0-10-14-0-12-15-0-8-------0-12-15-0-10-14-0-12-15-0-5---------| x6


Breakdown

D|------------------------------------------------------------------------|
A|------------------------------------------------------------------------|
F|------------------------------------------------------------------------|
C|------------------------------------------------------------------------|
G|----------------------------7-8-7---------------------------------------|
C|--0---0-0-0---0-0-0--0--0-7-------0---0-0-0---0-0-0--0--0-1-------------|


D|------------------------------------------------------------------------|
A|------------------------------------------------------------------------|
F|------------------------------------------------------------------------|
C|------------------------------------------------------------------------|
G|----------------------------7-8-7-------------------------1////13-------|
C|--0---0-0-0---0-0-0--0--0-7-------0---0-0-0---0-0-0--0--0-1////13-------|


Verse 1

D|------------------------------------------------------------------------|
A|------------------------------------------------------------------------|
F|------------------------------------------------------------------------|
C|------------------------------------------------------------------------|
G|------------------------------------------------------------------------|
C|--0-0-0-0-0-0-0-0-0-12-10-8-0-10-8-7-0-0-0-0-0-0-0-0-0-10-8-7-5---------| x4


Chorus 1

D|------------------------------------------------------------------------------|
A|------------------------------------------------------------------------------|
F|------------------------------------------------------------------------------|
C|------------------------------------------------------------------------3--2--|
G|------7---5---3---0-0-7-5-3-0-------7---5---3-------5---3---2---3---2---3--2--|
C|--3-3---3---3-------------------3-3---3---3-----2-2---2---2---2---2---2-3--2--| x4


Intro 2

D|------------------------------------------------------------------------|
A|------------------------------------------------------------------------|
F|------------------------------------------------------------------------|
C|------------------------------------------------------------------------|
G|--------------------------------7-8-7----------------------------7-5----|
C|----0-12-15-0-10-14-0-12-15-0-8-------0-12-15-0-10-14-0-12-15-0-5-------| x4


Verse 2

D|------------------------------------------------------------------------|
A|------------------------------------------------------------------------|
F|------------------------------------------------------------------------|
C|------------------------------------------------------------------------|
G|------------------------------------------------------------------------|
C|----0-0-0-0-0-0-0-0-0-12-10-8-0-10-8-7-0-0-0-0-0-0-0-0-0-10-8-7-5-------| x4


Mini-Bridge

D|------------------------------------------------------------------------|
A|------------------------------------------------------------------------|
F|------------------------------------------------------------------------|
C|------7---8---7---10---8---767------------------------------------------|
G|--8-8---8---8---8----8---8----------------------------------------------|
C|------------------------------------------------------------------------|


Chorus 2

D|------------------------------------------------------------------------------|
A|------------------------------------------------------------------------------|
F|------------------------------------------------------------------------------|
C|------------------------------------------------------------------------3--2--|
G|------7---5---3---0-0-7-5-3-0-------7---5---3-------5---3---2---3---2---3--2--|
C|--3-3---3---3-------------------3-3---3---3-----2-2---2---2---2---2---2-3--2--| x5




http://www.guitartabcreator.com
Guitar Tab Creator is intended to store guitar tab created through the tool. It currently does not support in-line text editing. Any text you place in here will be lost. If you need to comment on your tab, please use the "Tab Notes" section located below.