Spanish Flamenco

(/) Slide Up  (\) Slide Down  (h) Hammer On  (p) Pull Off  (b) Bend (r) Release (v) Vibrato


E|-0-----------------------0---------------------0-------------------------------
B|-0----0-1-3-3/5-3--------0---0-1-3-------------0-0-1-3-3/5---------5-6-5h6p5---
G|-1----------------5-4v---2---------2---2-3\2-0-1-----------5-4-5/7-------------
D|-2-----------------------2-----------2-2/3-2-0-2-------------------------------
A|-2---------------------------------------------2-------------------------------
E|-------------------------------------------------------------------------------



E|-----------------0-----------------------0-------------------------------------------
B|---5-------5-3\1-1-0-1-3-----------------0-0h1h3-3/5-3---------5-6-5h6p5---5-6-8-6---
G|-7---7-5-4-------2-------2---2/3\2-0-----1-------------5-4-5/7-----------7---------9-
D|-----------------2---------2---------2-0-2-------------------------------------------
A|-----------------------------------------2-------------------------------------------
E|-------------------------------------------------------------------------------------



E|-------------0---------------0-0-0-0-0-0-0-0-0-0-
B|-------------1-0--1--3-------0-0-0-0-0-0-0-0-0-0-
G|-9v-7v-5v-4v-2---------2-----1-1-1-1-1-1-1-1-1-1-
D|-------------2-----------2-0-2-2-2-2-2-2-2-2-2-2-
A|-----------------------------2-2-2-2-2-2-2-2-2-2-
E|-------------------------------------------------



E|-0-0-0-0-0-0-0-0-0-
B|-1-1-1-1-1-1-1-1-1-
G|-2-2-2-2-2-2-2-2-2-
D|-2-2-2-2-2-2-2-2-2-
A|-------------------
E|-------------------



E|-0-0-0-0-0-0-0-0-0-
B|-0-0-0-0-0-0-0-0-0-
G|-1-1-1-1-1-1-1-1-1-
D|-2-2-2-2-2-2-2-2-2-
A|-2-2-2-2-2-2-2-2-2-
E|-------------------



E|-0-------0h1h3-1-0---------------------------------
B|-0-----------------3-1-0---------------------------
G|-1-----------------------0-3-2-0-------------------
D|-2-------------------------------3-2-0-------------
A|-2-------------------------------------3-2-0-------
E|---------------------------------------------3-1-0-
http://www.guitartabcreator.com
Guitar Tab Creator is intended to store guitar tab created through the tool. It currently does not support in-line text editing. Any text you place in here will be lost. If you need to comment on your tab, please use the "Tab Notes" section located below.