The Front Porch by Ballyhoo!

(/) Slide Up  (\) Slide Down  (h) Hammer On  (p) Pull Off  (b) Bend (r) Release (v) Vibrato


E|--------------------------------------------------------------------------------------------------
B|----------13------13--------------14--------------16----------------------11------11--------------
G|------13------13------13------13------13------13------13------13------12------12------12------12--
D|--13----------------------13--------------13--------------13------13----------------------13------
A|--------------------------------------------------------------------------------------------------
E|--------------------------------------------------------------------------------------------------



E|--------------------------------------------------------------------------------------------------
B|--13--------------14----------------------13------13--------------16--------------14--------------
G|------12------12------12------12------13------13------13------13------13------13------13------13--
D|----------13--------------13------15----------------------15--------------15--------------15------
A|--------------------------------------------------------------------------------------------------
E|--------------------------------------------------------------------------------------------------



E|----------------------------------------------------------
B|----------14------14--------------16--16--16--14--14--14--
G|------13------13------13------13--13--13--13--13--13--13--
D|--14----------------------14------14--14--14--14--14--14--
A|----------------------------------------------------------
E|----------------------------------------------------------
http://www.guitartabcreator.com
Guitar Tab Creator is intended to store guitar tab created through the tool. It currently does not support in-line text editing. Any text you place in here will be lost. If you need to comment on your tab, please use the "Tab Notes" section located below.