Sonny Stream

(/) Slide Up  (\) Slide Down  (h) Hammer On  (p) Pull Off  (b) Bend (r) Release (v) Vibrato
E|------------------------9----------------------------------5-----------------------------------------
B|---------11b16--17---------10------------------10--13---------8----------8-------------13------------
G|--17p16-------------19---------------------11----------16--------10-------------6----------15--------
D|-------------------------------11--12--13----------------------------14-----12-----10----------------
A|-----------------------------------------------------------------------------------------------------
E|-----------------------------------------------------------------------------------------------------



E|--5---------------------------------------------------------------------5-----5--------------5-----
B|-----8----------8-------------13------9--10--------------8--12------12-----8-----12------12-----8--
G|--------10-------------6----------16----------------------------17-------------------17------------
D|------------14-----12-----10-----------------15----------------------------------------------------
A|---------------------------------------------------------------------------------------------------
E|---------------------------------------------------------------------------------------------------



E|-----------------------------------------------------------------------------------------------------
B|---------------------8--11------------------5-----------------------------------------------5--6-----
G|--10------7-----------------14------12---------7-------------------7--9--10--12-----14---------------
D|------14-----11--14-------------15------15--------10--5--7--9--10-----------------------17-----------
A|---------------------------------------------------------------------------------8-------------------
E|-----------------------------------------------------------------------------------------------------



E|------------------------------------------------------------------------------------
B|-------------------6--5--3--5------------6\-------6--------5------6------5----------
G|-------------------------------10--5--9----9---------9/10------------10----10---------
D|-------------9/10-----------------------------10--------------10--------------------
A|--10/11-----------------------------------------------------------------------------
E|------------------------------------------------------------------------------------
http://www.guitartabcreator.com
Guitar Tab Creator is intended to store guitar tab created through the tool. It currently does not support in-line text editing. Any text you place in here will be lost. If you need to comment on your tab, please use the "Tab Notes" section located below.