Gravity Chorus and Solo

(/) Slide Up  (\) Slide Down  (h) Hammer On  (p) Pull Off  (b) Bend (r) Release (v) Vibrato


E|--------------------------------------
B|-----------8-----------------8--------
G|--------5-----5-----------5-----5-----
D|-----7-----------7-----7-----------7--
A|--0-----------------0-----------------
E|--------------------------------------



E|--------------------------------------
B|-----------7-----------------7--------
G|--------5-----5-----------5-----5-----
D|-----4-----------4-----4-----------4--
A|--5-----------------5-----------------
E|--------------------------------------



E|--------------------------------------
B|-----------8-----------------8--------
G|--------7-----7-----------7-----7-----
D|-----8-----------8-----5-----------5--
A|--6-----------------6-----------------
E|--------------------------------------



E|-----------------------
B|-----------7--------7--
G|--------5-----5-----5--
D|-----4-----------4--4--
A|--5-----------------5--
E|-----------------------



E|------------------------------------------------
B|--10h12/15--12\10h12--10h12/17--15\12\10--12\8--
G|------------------------------------------------
D|------------------------------------------------
A|------------------------------------------------
E|------------------------------------------------



E|---------19---------17---------19---------17---------19b15-------------------------
B|--15h17------15h17------15h17------15h17------15h17---------15----------15--17-----
G|----------------------------------------------------------------17--16----------14b
D|-----------------------------------------------------------------------------------
A|-----------------------------------------------------------------------------------
E|-----------------------------------------------------------------------------------
http://www.guitartabcreator.com
Guitar Tab Creator is intended to store guitar tab created through the tool. It currently does not support in-line text editing. Any text you place in here will be lost. If you need to comment on your tab, please use the "Tab Notes" section located below.