A minor pentatonic scales

(/) Slide Up  (\) Slide Down  (h) Hammer On  (p) Pull Off  (b) Bend (r) Release (v) Vibrato

E|--------------------------------5--8--5--------------------------------
B|--------------------------5--8-----------8--5--------------------------
G|--------------------5--7-----------------------7--5--------------------
D|--------------5--7-----------------------------------7--5--------------
A|--------5--7-----------------------------------------------7--5--------
E|--5--8-----------------------------------------------------------8--5--



E|------------------------------------8--10--8------------------------------------
B|-----------------------------8--10------------10--8-----------------------------
G|-----------------------7--9--------------------------9--7-----------------------
D|----------------7--10--------------------------------------10--7----------------
A|---------7--10----------------------------------------------------10--7---------
E|--8--10------------------------------------------------------------------10--8--



E|-----------------------------------------10--12--10-----------------------------------------
B|---------------------------------10--13--------------13--10---------------------------------
G|--------------------------9--12------------------------------12--9--------------------------
D|------------------10--12--------------------------------------------12--10------------------
A|----------10--12------------------------------------------------------------12--10----------
E|--10--12----------------------------------------------------------------------------12--10--



E|------------------------------------------12--15--12------------------------------------------
B|----------------------------------13--15--------------15--13----------------------------------
G|--------------------------12--14------------------------------14--12--------------------------
D|------------------12--14----------------------------------------------14--12------------------
A|----------12--15--------------------------------------------------------------15--12----------
E|--12--15------------------------------------------------------------------------------15--12--



E|------------------------------------------15--17--15------------------------------------------
B|----------------------------------15--18--------------18--15----------------------------------
G|--------------------------14--17------------------------------17--14--------------------------
D|------------------15--17----------------------------------------------17--15------------------
A|----------15--17--------------------------------------------------------------17--15----------
E|--15--17------------------------------------------------------------------------------17--15--



E|-------------------------------8-10/12\10-8---------------------------
B|--------------------------8-10--------------10-8----------------------
G|--------------------5-7/9------------------------9\7-5----------------
D|---------------5-7-------------------------------------7-5------------
A|--------3-5/7----------------------------------------------7\5-3------
E|--3-5------------------------------------------------------------5-3--



E|-------------------------------------15-17-15-------------------------------------
B|----------------------------13-15/17----------17\15-13----------------------------
G|----------------------12-14----------------------------14-12----------------------
D|-------------10-12/14----------------------------------------14\12-10-------------
A|-------10-12----------------------------------------------------------12-10-------
E|-10-12----------------------------------------------------------------------12-10-
http://www.guitartabcreator.com
Guitar Tab Creator is intended to store guitar tab created through the tool. It currently does not support in-line text editing. Any text you place in here will be lost. If you need to comment on your tab, please use the "Tab Notes" section located below.