SSB4: New Character -Megaman! (RYTHM,v1)

(/) Slide Up  (\) Slide Down  (h) Hammer On  (p) Pull Off  (b) Bend (r) Release (v) Vibrato
E|----------------------------------------------------------------
B|----------------------------------------------------------------
G|----------------------------------------------------------------
D|--12--12--12--12--10------------8--8--8--8--14--14--14----3--7--
A|--12--12--12--12--10------------8--8--8--8--14--14--14----3--7--
E|--12--12--12--12--10--7--10--7--8--8--8--8--14--14--14----3--7--



E|-----------------------------------------------------------------------
B|-----------------------------------------------------------------------
G|-----------------------------------------------------------------------
D|-----------------------------------------------------------------------
A|-----------------------------------------------------------------------
E|--0----0--0--0----0--0--0----0--0--0----0--0--0----0--0--0----0--0--0--



E|--------------------------------------------------------
B|--------------------------------------------------------
G|--------------------------------------------------------
D|--------------------------------------------------------
A|--------------------------------------------------------
E|--0--0--0----0--0--0----0--0--0----3--2--0--5--3--2--0--



E|--------------------------------------
B|--------------------------------------
G|--------------------------------------
D|--0--0--0--0--0--0--0--0--0--0--0-----
A|--0--0--0--0--0--0--0--0--0--0--0-----
E|--0--0--0--0--0--0--0--0--0--0--0-----



E|---------------------------------------------------------
B|---------------------------------------------------------
G|---------------------------------------------------------
D|--0----0--0----0--8----8--8--------------10----10--10----
A|--0----0--0----0--8----8--8--------------10----10--10----
E|--0----0--0----0--8----8--8----10--9--8--10----10--10----



E|---------------------------------------
B|---------------------------------------
G|---------------------------------------
D|--0----0--0----0----0--0----0--0----0--
A|--0----0--0----0----0--0----0--0----0--
E|--0----0--0----0----0--0----0--0----0--



E|--------------------------------------
B|--------------------------------------
G|--------------------------------------
D|--------------------------------------
A|--------------------------------------
E|--1----1--1--1----1--1--1----1--1--1--



E|--------------------------------------
B|--------------------------------------
G|--------------------------------------
D|--------------------------------------
A|--------------------------------------
E|--0----0--0--0----0--0--0----0--0--0--



E|--------------------------------------
B|--------------------------------------
G|--------------------------------------
D|--------------------------------------
A|--------------------------------------
E|--1----1--1--1----1--1--1----1--1--1--



E|--------------------------------------------------
B|--------------------------------------------------
G|--------------------------------------------------
D|--3--------3--------3--------3--4--------------4--
A|--3--3--3--3--3--3--3--3--3--3--4--4--4--4--4--4--
E|--------------------------------------------------



E|-------------------------------------------------
B|-------------------------------------------------
G|-------------------------------------------------
D|-------------------------------------------------
A|-------------------------------------------------
E|--0--0--3--0--3--2--0--0----0--3--0--3--2--0-----



E|-----
B|-----
G|-----
D|--0--
A|--0--
E|--0--
http://www.guitartabcreator.com
Guitar Tab Creator is intended to store guitar tab created through the tool. It currently does not support in-line text editing. Any text you place in here will be lost. If you need to comment on your tab, please use the "Tab Notes" section located below.