SSB4: New Character -Megaman! (LEAD,v1)

(/) Slide Up  (\) Slide Down  (h) Hammer On  (p) Pull Off  (b) Bend (r) Release (v) Vibrato
E|--8--8--8--6--8--10--10--10--8--10--11--11--11--14--14--14--15--13--11--13b15v--
B|--------------------------------------------------------------------------------
G|--------------------------------------------------------------------------------
D|--------------------------------------------------------------------------------
A|--------------------------------------------------------------------------------
E|--------------------------------------------------------------------------------



E|--8--8--8--8--8--8--8--10--6--4--4--4--4--1--1--3--4--6--8--8--8--8--8--8--8--10--6--4--4--6--6--8--
B|----------------------------------------------------------------------------------------------------
G|----------------------------------------------------------------------------------------------------
D|----------------------------------------------------------------------------------------------------
A|----------------------------------------------------------------------------------------------------
E|----------------------------------------------------------------------------------------------------



E|--8--8--8--8--8--8--8--10--
B|---------------------------
G|---------------------------
D|---------------------------
A|---------------------------
E|---------------------------



E|--0/11--11--11--8----0/11--11--11--11--11--8----15--13--15--
B|------------------------------------------------------------
G|------------------------------------------------------------
D|------------------------------------------------------------
A|------------------------------------------------------------
E|------------------------------------------------------------



E|--0/11--11--11--11--11--8----15--13--11--13--
B|---------------------------------------------
G|---------------------------------------------
D|---------------------------------------------
A|---------------------------------------------
E|---------------------------------------------



E|--13--13--13--13--13--13--10----15--13--11--10--8b9b8--
B|-------------------------------------------------------
G|-------------------------------------------------------
D|-------------------------------------------------------
A|-------------------------------------------------------
E|-------------------------------------------------------



E|--6--8----6--11--8--6--8--6--6--8--3b4-----
B|----------------------------------------4--
G|-------------------------------------------
D|-------------------------------------------
A|-------------------------------------------
E|-------------------------------------------



E|-----3--6--8----8--6--11--8--6--8----6--6--3--6--7--7--11--15--
B|--4------------------------------------------------------------
G|---------------------------------------------------------------
D|---------------------------------------------------------------
A|---------------------------------------------------------------
E|---------------------------------------------------------------



E|--11--11--10--11--20--18--16--15--13--13--15--11----13--15--
B|------------------------------------------------------------
G|------------------------------------------------------------
D|------------------------------------------------------------
A|------------------------------------------------------------
E|------------------------------------------------------------



E|--11--11--10--11--20--18--16--15--13b15--
B|-----------------------------------------
G|-----------------------------------------
D|-----------------------------------------
A|-----------------------------------------
E|-----------------------------------------
http://www.guitartabcreator.com
Guitar Tab Creator is intended to store guitar tab created through the tool. It currently does not support in-line text editing. Any text you place in here will be lost. If you need to comment on your tab, please use the "Tab Notes" section located below.