APFC SONG1

(/) Slide Up  (\) Slide Down  (h) Hammer On  (p) Pull Off  (b) Bend (r) Release (v) Vibrato


E|-----------------------------
B|-----------------------------
G|-----------------------------
D|-----------------------------
A|---3---5---10---3---5---10---
E|-----------------------------



E|---------------------------------------------
B|---------------------------------------------
G|---------------------------------------------
D|---------------------------------------------
A|---11---9---11---7-----------9---7-----------
E|---------------------9---7-----------9---7---



E|---------------------------------------------------------
B|---------------------------------------------------------
G|---------------------------------------------------------
D|---------------------------------------------------------
A|-----------3---2-----------3---3---3---3---3---3/5---5---
E|---3---3-----------3---3---------------------------------



E|---------------------------------------------------------
B|---------------------------------------------------------
G|---------------------------------------------------------
D|---------------------------------------------------------
A|-----------3---2-----------3---3---3---3---3---3/2---2---
E|---3---3-----------3---3---------------------------------



E|---
B|---
G|---
D|---
A|---
E|---



E|-------
B|-------
G|-------
D|-------
A|-------
E|-------



E|---
B|---
G|---
D|---
A|---
E|---
http://www.guitartabcreator.com
Guitar Tab Creator is intended to store guitar tab created through the tool. It currently does not support in-line text editing. Any text you place in here will be lost. If you need to comment on your tab, please use the "Tab Notes" section located below.