Demo song #1

(/) Slide Up  (\) Slide Down  (h) Hammer On  (p) Pull Off  (b) Bend (r) Release (v) Vibrato


E|--2--2--------2-----------------3--3--------3--2--2--------2----------------
B|--3-----3-----------2--------2--3-----3--------3-----3----------------------
G|--2--------2-----2-----2--------0--------0-----2--------2-----2-------------
D|--0--------------2--------2-----0--------------0--------------2----------2--
A|--0--------------0--------------2--------------0--------------0--3p0-----0--
E|--0-----------------------------3--------------0----------------------3-----



E|-----------------------------------------------------------------
B|--2-----------------2-----------------2-----------------------2--
G|--2-----------------2-----------------2-----------------------2--
D|--2-----------5-----2-----------7-----2-----------8--7--8--5--2--
A|--0--0--0--0--3--0--0--0--0--0--5--0--0--0--0--0--6--5--6--3--0--
E|-----------------------------------------------------------------



E|----------------------------------------------12-------------12-------------12-------------12-----
B|------12-------12------12------12---------12-------------12--12---------12--12---------12--12-----
G|--12--12-------12------12------12--14b15----------14b15----------14b15----------14b15-------------
D|--14------14v------14------14---------------------------------------------------------------------
A|--------------------------------------------------------------------------------------------------
E|--------------------------------------------------------------------------------------------------



E|--15b16--15v--15p12--------12---------12------------------12-----------------12----------
B|---------------------15p0------15b16------15--12v--15b16------15--12--15b16------15--12--
G|-----------------------------------------------------------------------------------------
D|-----------------------------------------------------------------------------------------
A|-----------------------------------------------------------------------------------------
E|-----------------------------------------------------------------------------------------



E|---------12-----------------12---------------15b16--15--12--12--
B|--15b16------15--12--15b16------15--12--12v-----------------15--
G|----------------------------------------------------------------
D|----------------------------------------------------------------
A|----------------------------------------------------------------
E|----------------------------------------------------------------
http://www.guitartabcreator.com
Guitar Tab Creator is intended to store guitar tab created through the tool. It currently does not support in-line text editing. Any text you place in here will be lost. If you need to comment on your tab, please use the "Tab Notes" section located below.