blackwhite

(/) Slide Up  (\) Slide Down  (h) Hammer On  (p) Pull Off  (b) Bend (r) Release (v) Vibrato


E|---12p8-----8h12/17p12---------12h17-16p12-------------16h19p16--------19p16----
-----10-10----------13-----13-----------12---------17--------17--17-----------
-------9--------------14-14---------------13-----16------------16-------------
--------------------------------------------14/18-----------------------------
------------------------------------------------------------------------------
------------------------------------------------------------------------------


-20p17-------21p17h20p17-------------------------15h20p15---------------------
------18----------------18----------18---------17--------17-------------------
--------17----------------17------17---------17------------17-----------------
----------------------------19--19---------17----------------17-----------17--
------------------------------20------15h19--------------------19p15-14h17----
------------------------------------------------------------------------------


-----15-----------------------------------------------------------------------
---15--15---------------------------------------------------------------------
-16------16-------------------------------------------------------------------
-----------17------------------12-----------------12-14-15-14-12----12-14-15--
-------------17p14----12-14-15----15-14-12-14--15----------------15-----------
------------------------------------------------------------------------------


------------------------------------------------------------------------------
------------------------------------------------------------------------------
------------------------------------------------------------------------------
-14-12----12-14-15-14v-------------------------12----------------12-14-15-12--
-------15-----------------15-14-12-12-12-14-15----15-14-12-14-15--------------
------------------------------------------------------------------------------


-------------------------12t17p17------12-15-13-12----12t17t12----------------
---------------------------------------------------15----------12t17t12-------
----------------12-14-16---------14-------------------------------------------
-14-15-12-14-15---------------------------------------------------------------
------------------------------------------------------------------------12v---
------------------------------------------------------------------------------

B|--
G|--
D|--
A|--
E|--
http://www.guitartabcreator.com
Guitar Tab Creator is intended to store guitar tab created through the tool. It currently does not support in-line text editing. Any text you place in here will be lost. If you need to comment on your tab, please use the "Tab Notes" section located below.