Hosanna (lead guitar)

(/) Slide Up  (\) Slide Down  (h) Hammer On  (p) Pull Off  (b) Bend (r) Release (v) Vibrato

E|-----4--------4-------------------------------------------------
B|---5------5h7--------4--------4--------5----5--------4--------4-
G|-6------6----------4------4h6--------6--------6----4------4h6---
D|-----------------6------6--------6/7------7------6------6-------
A|----------------------------------------------------------------
E|----------------------------------------------------------------



E|-----4--------4-----------------------------7-------------9---
B|---5------5h7--------4--------4--------5------5------7------7-
G|-6------6----------4------4h6--------6-------------8----------
D|-----------------6------6--------6/7------7------9------9-----
A|--------------------------------------------------------------
E|--------------------------------------------------------------



E|-------------4-----------------
B|-----9-----5---------2---4-----
G|---9-----6---------2-------4---
D|-9---------------4-----------4-
A|-------------------------------
E|-------------------------------



E|-----4-----4-----4-----7-----5-
B|---5-----5-----5-----5-----5---
G|-6-----6-----6-----6-----6-----
D|-------------------------------
A|-------------------------------
E|-------------------------------



E|-----0-------0-------0-------0-------0-------0-------0-------0---
B|---0---0---0---0---0---0---0---0---0---0---0---0---0---0---0---0-
G|-----------------------------------------------------------------
D|-----------------------------------------------------------------
A|---------0-------2-------4-------0-------4-------2-------2-------
E|-4---------------------------------------------------------------



E|-----0-------0-------0-------0-------0-------0---4---------------
B|---0---0---0---0---0---0---0---0---0---0---0---0-5---------------
G|-------------------------------------------------6---------------
D|-------------------------------------------------6---------------
A|---------0-------2-------4-------0-------2-------4---------------
E|-4---------------------------------------------------------------



E|--------------------------------------------------------------------------------
B|-12-12-12-12-12-9-7-9-12-12-12-12-12-9-7-9-10-10-10-10-10-9-7-5-4-4-4-4-5-5-7-7-
G|--------------------------------------------------------------------------------
D|--------------------------------------------------------------------------------
A|--------------------------------------------------------------------------------
E|--------------------------------------------------------------------------------



E|--------------------------------------------------------------------------11------11------11--12/14--14--14--14--14--14--14--14--
B|--12--12--12h14--12--12--9--7--9--12--12--12h14--12--12--9--7--9--10--10------10------10-----------------------------------------
G|---------------------------------------------------------------------------------------------------------------------------------
D|---------------------------------------------------------------------------------------------------------------------------------
A|---------------------------------------------------------------------------------------------------------------------------------
E|---------------------------------------------------------------------------------------------------------------------------------
http://www.guitartabcreator.com
Guitar Tab Creator is intended to store guitar tab created through the tool. It currently does not support in-line text editing. Any text you place in here will be lost. If you need to comment on your tab, please use the "Tab Notes" section located below.