Pink Floyd - Money

 E|-----------------------------------------------------|
B|-----------------------------------------------------|
G|-----4-----------------------4-----------------------|
D|--------4-----------------------4--------------------|
A|--2--------2--------2--5--2--------2--------2--0--5--|
E|--------------2--5--------------------2--5-----------|

E|-----------------------------------------------------|
B|-----------------------------------------------------|
G|-----4-----------------------4-----------------------|
D|--------4-----------------------4--------------------|
A|--2--------2--------2--5--2--------2--------2--5-----|
E|--------------2--5--------------------2--5-----------|

E|----------------------------------------------------|
B|----------------------------------------------------|
G|----------------------------------------------------|
D|--4--4-----4-------------4--3--2--------------------|
A|--------4-------------4-------------------0--2--5---|
E|----------------2--5----------------0--3------------|

Solo:

E|----------------------------------------------------|
B|----------10-(12)-(11)-(10)--7--10------------------|
G|--9--7------------------------------9---7-----------|
D|----------------------------------------------------|
A|----------------------------------------------------|
E|----------------------------------------------------|

E|----------10-------------------12-(14)-(13)---------|
B|--10--12------12--12---12--12---------------12--12--|
G|----------------------------------------------------|
D|----------------------------------------------------|
A|----------------------------------------------------|
E|----------------------------------------------------|

E|----------------------------------7----------10--12-|
B|-------------------------------7-----10--12---------|
G|--9--7--9--9-----9--(10)-(11)-----------------------|
D|--------------9-------------------------------------|
A|----------------------------------------------------|
E|----------------------------------------------------|

E|--12-(14)-12----------10--12-(14)-12--10--12--------|
B|--------------12--12--------------------------12----|
G|----------------------------------------------------|
D|----------------------------------------------------|
A|----------------------------------------------------|
E|----------------------------------------------------|

E|----------------------------------------------------|
B|--10------------------------------------------------|
G|------10--9--7--------------------------------------|
D|----------------9--7--------------------7--9--7-----|
A|----------------------8--7--5-----7--9-----------9--|
E|-------------------------------7--------------------|

E|-----------------7------------------------10--12----|
B|--------------7-----10--10--12--12--12--------------|
G|--7--7-----9----------------------------------------|
D|--------9-------------------------------------------|
A|----------------------------------------------------|
E|----------------------------------------------------|

E|--12-(14)-12----------14--14--12--------------------|
B|--------------12--12--------------15--12------------|
G|------------------------------------------14--11--9-|
D|----------------------------------------------------|
A|----------------------------------------------------|
E|----------------------------------------------------|

E|----------------------------------------------------|
B|------------10-(12)-10--10--8--7--------------------|
G|--9--11---------------------------9--7--6-----------|
D|--------------------------------------------10--9---|
A|----------------------------------------------------|
E|----------------------------------------------------|

E|----------------------------------------------------|
B|--7---------9---------10--10---10--10---------------|
G|--7---------9---------11--11---11--11--11-----------|
D|-------9---------9----------------------------------|
A|----------------------------------------------------|
E|----------------------------------------------------|
Guitar Tab Creator is intended to store guitar tab created through the tool. It currently does not support in-line text editing. Any text you place in here will be lost. If you need to comment on your tab, please use the "Tab Notes" section located below.