MGMT - Kids

Intro 1

e|-----------------------------2-----4----2------------------------------|
B|----------------2-----5--------------------5----------2----------------|
G|-----2----4----------------------------------------------------4-------|
D|-----------------------------------------------------------------------|
A|-----------------------------------------------------------------------|
E|-----------------------------------------------------------------------|

e|-----------------------------2-----4----2------------------------------|
B|----------------2-----5--------------------5----------2----------------|
G|-----2----4------------------------------------------------------------|
D|-----------------------------------------------------------------------|
A|-----------------------------------------------------------------------|
E|-----------------------------------------------------------------------|

Intro 2

e|-------------------------------------------------------------------------|
B|-------------------------------------------------------------------------|
G|-------------------7-----------------------------------------------------|
D|---4---------------7-------------------7-------------------7-------------|
A|---4---------------5-------------------7-------------------7-------------|
E|---2-----------------------------------5-------------------4-------------|

Gtr. 1
e|-----------------------------2-----4----2------------------------------|
B|----------------2-----5--------------------5----------2----------------|
G|-----2----4----------------------------------------------------4-------|
D|-----------------------------------------------------------------------|
A|-----------------------------------------------------------------------|
E|-----------------------------------------------------------------------|

Gtr. 2
e|-----------------------------------------------------------------------|
B|------------------------------------0---2----------------0-------------|
G|--------------2--2----------2------------------1--2--1-------2---1-----|
D|----4---4-----------4----4------4-----------------------------------2--|
A|-----------------------------------------------------------------------|
E|-----------------------------------------------------------------------|

Gtr. 1
e|-----------------------------2-----4----2------------------------------|
B|----------------2-----5--------------------5----------2----------------|
G|-----2----4------------------------------------------------------------|
D|-----------------------------------------------------------------------|
A|-----------------------------------------------------------------------|
E|-----------------------------------------------------------------------|

Gtr. 2
e|--------------------------------------------------0--------------------|
B|------------------------------------0---2-----------2--0--------0------|
G|--------------2---2-------------2-------------------------2-------2--1-|
D|----4---4-------------4-----4------------------------------------------|
A|-----------------------------------------------------------------------|
E|-----------------------------------------------------------------------|

Gtr.1
e|-----------------------------2-----4----2------------------------------|
B|----------------2-----5--------------------5----------2----------------|
G|-----2----4----------------------------------------------------4-------|
D|-----------------------------------------------------------------------|
A|-----------------------------------------------------------------------|
E|-----------------------------------------------------------------------|

Gtr. 2
e|-----------------------------------------------------------------------|
B|------------------------------------0---2----------------0-------------|
G|--------------2--2----------2------------------1--2--1-------2---1-----|
D|----4---4-----------4----4------4-----------------------------------2--|
A|-----------------------------------------------------------------------|
E|-----------------------------------------------------------------------|

Gtr. 1
e|-----------------------------------------------------------------------|
B|----------------2------------------------------------------------------|
G|-----2----4----------4-----2-----4---2--------2------------------------|
D|------------------------------------------4----------------------------|
A|-----------------------------------------------------------------------|
E|-----------------------------------------------------------------------|

Gtr. 2
e|--------------------------------------------------0--------------------|
B|------------------------------------0---2-----------2--0--------0------|
G|--------------2---2-------------2-------------------------2-------2--1-|
D|----4---4-------------4-----4------------------------------------------|
A|-----------------------------------------------------------------------|
E|-----------------------------------------------------------------------|

e|-------------------------------------------------------------------------|
B|-------------------------------------------------------------------------|
G|-------------------7-----------------------------------------------------|
D|---4---------------7-------------------7-------------------7-------------|
A|---4---------------5-------------------7-------------------7-------------|
E|---2-----------------------------------5-------------------4-------------|

e|-------------------------------------------------------------------------|
B|-------------------------------------------------------------------------|
G|-------------------7-----------------------------------------------------|
D|---4---------------7-------------------7-------------------7-------------|
A|---4---------------5-------------------7-------------------7-------------|
E|---2-----------------------------------5-------------------4-------------|

e|-------------------------------------------------------------------------|
B|-------------------------------------------------------------------------|
G|-------------------7-----------------------------------------------------|
D|---4---------------7-------------------7-------------------7-------------|
A|---4---------------5-------------------7-------------------7-------------|
E|---2-----------------------------------5-------------------4-------------|

e|-------------------------------------------------------------------------|
B|-------------------------------------------------------------------------|
G|-------------------7-----------------------------------------------------|
D|---4---------------7-------------------7-------------------7-------------|
A|---4---------------5-------------------7-------------------7-------------|
E|---2-----------------------------------5-------------------4-------------|

e|-------------------------------------------------------------------------|
B|-------------------------------------------------------------------------|
G|-------------------7-----------------------------------------------------|
D|---4---------------7-------------------7-------------------7-------------|
A|---4---------------5-------------------7-------------------7-------------|
E|---2-----------------------------------5-------------------4-------------|

e|-------------------------------------------------------------------------|
B|-------------------------------------------------------------------------|
G|-------------------7-----------------------------------------------------|
D|---4---------------7-------------------7-------------------7-------------|
A|---4---------------5-------------------7-------------------7-------------|
E|---2-----------------------------------5-------------------4-------------|

e|-------------------------------------------------------------------------|
B|-------------------------------------------------------------------------|
G|-------------------7-----------------------------------------------------|
D|---4---------------7-------------------7-------------------7-------------|
A|---4---------------5-------------------7-------------------7-------------|
E|---2-----------------------------------5-------------------4-------------|

e|-------------------------------------------------------------------------|
B|-------------------------------------------------------------------------|
G|-------------------7-----------------------------------------------------|
D|---4---------------7-------------------7-------------------7-------------|
A|---4---------------5-------------------7-------------------7-------------|
E|---2-----------------------------------5-------------------4-------------|

e|-------------------------------------------------------------------------|
B|-------------------------------------------------------------------------|
G|-------------------7-----------------------------------------------------|
D|---4---------------7-------------------7-------------------7-------------|
A|---4---------------5-------------------7-------------------7-------------|
E|---2-----------------------------------5-------------------4-------------|

e|-------------------------------------------------------------------------|
B|-------------------------------------------------------------------------|
G|-------------------7-----------------------------------------------------|
D|---4---------------7-------------------7-------------------7-------------|
A|---4---------------5-------------------7-------------------7-------------|
E|---2-----------------------------------5-------------------4-------------|

e|-------------------------------------------------------------------------|
B|-------------------------------------------------------------------------|
G|-------------------7-----------------------------------------------------|
D|---4---------------7-------------------7-------------------7-------------|
A|---4---------------5-------------------7-------------------7-------------|
E|---2-----------------------------------5-------------------4-------------|

e|-------------------------------------------------------------------------|
B|-------------------------------------------------------------------------|
G|-------------------7-----------------------------------------------------|
D|---4---------------7-------------------7-------------------7-------------|
A|---4---------------5-------------------7-------------------7-------------|
E|---2-----------------------------------5-------------------4-------------|
Guitar Tab Creator is intended to store guitar tab created through the tool. It currently does not support in-line text editing. Any text you place in here will be lost. If you need to comment on your tab, please use the "Tab Notes" section located below.