Massive Attack - Teardrop

E|-----0---------0-|-----0---------0-|-----0---------0-|
B|---------3---3---|---------3---3---|---------3---3---|
G|-2-2---2---2-----|-2-2---2---2-----|-2-2---2---2-----|
D|-----------------|-----------------|-----------------|
A|-----------------|-----------------|-----------------|
D|-----------------|-----------------|-----------------| x2


E|-----0---------0-|-----0---------0-|-----0---------0-|
B|---------3---3---|---------3---3---|---------3---3---|
G|---2---2---2-----|---2---2---2-----|---2---2---2-----|
D|-----------------|-----------------|-----------------|
A|-0---------------|-----------------|-----------------|
D|-----------------|-5---------------|-0---------------| x2


E|-----0---------0-|-----0---------0-|-----0---------0-|-----0---------0-|
B|---------3---3---|---------3---3---|---------3---3---|-----0---------0-|
G|---2---2---2-----|---2---2---2-----|---2---2---2-----|---2---2---2-----|
D|-----------------|-----------------|-----------------|-----------------|
A|-0---------------|-----------------|-----------------|-0---------------|
D|-----------------|-5---------------|-0---------------|-----------------|

E|-----0---------0-|
B|---------3---3---|
G|---2---2---2-----|
D|-----------------|
A|-0---------------|
D|-----------------|


E|-----0---------0-|-----0---------0-|-----0---------0-|-----0---------0-|
B|---------3---3---|---------3---3---|---------3---3---|---------3---3---|
G|---2---2---2-----|---2---2---2-----|---2---2---2-----|---2---2---2-----|
D|-----------------|-----------------|-----------------|-----------------|
A|-0---------------|-----------------|-----------------|-0---------------|
D|-----------------|-5---------------|-0---------------|-----------------|

E|-----0---------0-|
B|---------3---3---|
G|---2---2---2-----|
D|-----------------|
A|-0---------------|
D|-----------------|


E|-----0---------0-|-----0---------0-|-----0---------0-|-----0---------0-|
B|---------3---3---|---------3---3---|---------3---3---|---------3---3---|
G|---2---2---2-----|---2---2---2-----|---2---2---2-----|-2-2---2---2-----|
D|-----------------|-----------------|-----------------|-----------------|
A|-----------------|-----------------|-0---------------|
D|-3---------------|-5---------------|-----------------|
Guitar Tab Creator is intended to store guitar tab created through the tool. It currently does not support in-line text editing. Any text you place in here will be lost. If you need to comment on your tab, please use the "Tab Notes" section located below.