Ludwig Van Beethoven - Fur Elise

E|----12-11-12-11-12----10------------------------------|
B|-------------------12----13-10------10-12---9-12-13---|
G|----------------------------------9-------9---------9-|
D|-------------------------------10---------------------|
A|------------------------------------------------------|
E|------------------------------------------------------|


E|-12-11-12-11-12----10-------------------------------|
B|----------------12----13-10------10-12---13-12-10---|
G|-------------------------------9-------9----------9-|
D|----------------------------10----------------------|
A|----------------------------------------------------|
E|----------------------------------------------------|


E|-12-11-12-11-12----10------------------------------|
B|----------------12----13-10------10-12---9-12-13---|
G|-------------------------------9-------9---------9-|
D|----------------------------10---------------------|
A|---------------------------------------------------|
E|---------------------------------------------------|

E|-12-11-12-11-12----10-----------------------------|
B|----------------12----13-10------10-12---13-12-10-|
G|-------------------------------9-------9----------|
D|----------------------------10--------------------|
A|--------------------------------------------------|
E|--------------------------------------------------|


E|-------10-12----13-12-10----12-10-8---10-8-7---|
B|-12-13-----------------------------------------|
G|-------------12----------10---------9--------9-|
D|-----------------------------------------------|
A|-----------------------------------------------|
E|-----------------------------------------------|


E|-12---12-12-----12-11-12-11-12-11-|
B|----------------------------------|
G|----9-----------------------------|
D|------------14--------------------|
A|----------------------------------|
E|----------------------------------|


E|-12-11-12-11-12----10------------------------------|
B|----------------12----13-10------10-12---9-12-13---|
G|-------------------------------9-------9---------9-|
D|----------------------------10---------------------|
A|---------------------------------------------------|
E|---------------------------------------------------|

E|-12-11-12-11-12----10-----------------------------|
B|----------------12----13-10------10-12---13-12-10-|
G|-------------------------------9-------9----------|
D|----------------------------10--------------------|
A|--------------------------------------------------|
E|--------------------------------------------------|


E|-------10-12----13-12-10----12-10-8---10-8-7---|
B|-12-13-----------------------------------------|
G|-------------12----------10---------9--------9-|
D|-----------------------------------------------|
A|-----------------------------------------------|
E|-----------------------------------------------|


E|-12---12-12-----12-11-12-11-12-11---|
B|------------------------------------|
G|----9-------------------------------|
D|------------14----------------------|
A|------------------------------------|
E|------------------------------------|


E|-12-11-12-11-12----10------------------------------|
B|----------------12----13-10------10-12---9-12-13---|
G|-------------------------------9-------9---------9-|
D|----------------------------10---------------------|
A|---------------------------------------------------|
E|---------------------------------------------------|


E|-12-11-12-11-12----10-----------------------------|
B|----------------12----13-10------10-12---13-12-10-|
G|-------------------------------9-------9----------|
D|----------------------------10--------------------|
A|--------------------------------------------------|
E|--------------------------------------------------|

Guitar Tab Creator is intended to store guitar tab created through the tool. It currently does not support in-line text editing. Any text you place in here will be lost. If you need to comment on your tab, please use the "Tab Notes" section located below.