Foster The People - Pumped Up Kicks

Version 1

e|-----------------------------------|
b|-----------------------------------|
g|-----------------------------------|
D|-----------------1-1-1-------------|
A|---------------3-------3-1-1-1-----|
E|-1-1-1-3-4-4-4-----------------3-1-|

e|---------------------------------------------|
b|---------------------------------------------|
g|---------------------------------------------|
D|-----------------1-1-1h3p1-------------------|
A|---------------3----------3-1-1-1-1h3p1------|
E|-1-1-1-3-4-4-4-------------------------3-1---|

e|-------------------------------------------------|
b|-------------------------------------------------|
g|------------------------------11-----------------|
D|----------------------10---12----12-10-10h12p10--|
A|-10-10-10-13-13-13-13----------------------------|
E|-------------------------------------------------|


____________________________________________________________________________________________________
Version 2

e|-------------------------------------|
b|-------------------------------------|
g|-------------------------------------|
D|-----------------1-1-----------------|
A|-------------1-3-----3---1-1-1-3-----|
E|-1-1-1-3-4-4-----------4---------4---|

e|-------------------------------------|
b|-------------------------------------|
g|-------------------------------3-3---|
D|-----------------1-1-----------x-x-6-|
A|-------------1-3-----3-1-3-1-1-1-1-x-|
E|-1-1-1-3-4-4-----------------------4-|

e|-------------------------------------|
b|-------------------------------------|
g|-------------------------------------|
D|-----------------1-1-----------------|
A|-------------1-3-----3---1-1-1-3-----|
E|-1-1-1-3-4-4-----------4---------4---|

e|-------------------------------------|
b|-------------------------------------|
g|-------------------------------------|
D|-----------------1-1-----------------|
A|-------------1-3-----3-1-3-1-1-1-1---|
E|-1-1-1-3-4-4-----------------------4-|
Guitar Tab Creator is intended to store guitar tab created through the tool. It currently does not support in-line text editing. Any text you place in here will be lost. If you need to comment on your tab, please use the "Tab Notes" section located below.