Ed Sheeran - The A-Team

e|---------------------------------------------------------------------------|
B|---------------------------------------------------------------------------|
G|-------------------------------9-------------------------------------------| x2
D|--9h11-11-----------9h11-11------11----9h11-11-----------------------------|
A|-------------11-12--------------------------------9-7----------------------|
E|---------------------------------------------------------------------------|

e|---------------------------------------------------------------------------|
B|---------------------------------------------------------------------------|
G|--9---------------9---------------9----------------------------------------|
D|----11--9-----------11--9-----------11--11p9-9------9-9h11------9-9h11-----|
A|----------h12-12----------h12-12----------------12----------12----------12-|
E|---------------------------------------------------------------------------|

e|---------------------------------------------------------------------------|
B|---------------------------------------------------------------------------|
G|--9-----------------9----------------9-----9-------------------------------|
D|----11--11p9-11-------11--11p9-9-------11----11--11-11-11-11--11/12\11p9---|
A|----------------12---------------12--------------------------------------12|
E|---------------------------------------------------------------------------|

e|---------------------------------------------------------------------------|
B|---------------------------------------------------------------------------|
G|----------------------------------------------------------9-11-9-----------|
D|--9h11-11--9-11-9-11--9-----9h11-11--11/12\11p9-----9h11--------11p9-------|
A|------------------------12----------------------12-------------------12-12-|
E|---------------------------------------------------------------------------|

e|---------------------------------------------------------------------------|
B|---------------------------------------------------------------------------|
G|---------------------------------------------------------------------------|
D|--9h11-11---9-11-9-11--11---9-11-9-11--9------9h11-11--11/12\11p9----------|
A|-----------------------------------------12-----------------------12-------|
E|---------------------------------------------------------------------------|

e|---------------------------------------------------------------------------|
B|------------10-9-----------------------------------------------------------|
G|-------9-11------9----------9------------9---------------------------------|
D|--9h11-------------11-9--------11-9---------11-9-9h11---12---11------------|
A|------------------------12----------12-------------------------------------|
E|---------------------------------------------------------------------------|

e|---------------------------------------------------------------------------|
B|---------------------------------------------------------------------------|
G|-------------------------------9-------------------------------------------| x2
D|--9h11-11-----------9h11-11------11----9h11-11-----------------------------|
A|-------------11-12--------------------------------9-7----------------------|
E|---------------------------------------------------------------------------|

e|---------------------------------------------------------------------------|
B|---------------------------------------------------------------------------|
G|--9---------------9---------------9----------------------------------------|
D|----11--9-----------11--9-----------11--11p9-9------9-9h11------9-9h11-----|
A|----------h12-12----------h12-12----------------12----------12----------12-|
E|---------------------------------------------------------------------------|

e|---------------------------------------------------------------------------|
B|---------------------------------------------------------------------------|
G|-9-----------------9-------------------------------------------------------|
D|---11--11p9-9--------11--11p9-9------9h11-11---9h11-11-11-11--11/12\11p9---|
A|---------------12---------------12---------------------------------------12|
E|---------------------------------------------------------------------------|

e|---------------------------------------------------------------------------|
B|---------------------------------------------------------------------------|
G|----------------------------------------------------------9-11-9-----------|
D|--9h11-11--9-11-9-11--9-----9h11-11--11/12\11p9-----9h11--------11p9-------|
A|------------------------12----------------------12-------------------12-12-|
E|---------------------------------------------------------------------------|

e|---------------------------------------------------------------------------|
B|---------------------------------------------------------------------------|
G|---------------------------------------------------------------------------|
D|--9h11-11---9-11-9-11--11---9-11-9-11--9------9h11-11--11/12\11p9----------|
A|-----------------------------------------12-----------------------12-------|
E|---------------------------------------------------------------------------|

e|---------------------------------------------------------------------------|
B|------------10-9-----------------------------------------------------------|
G|-------9-11------9----------9-----------9----------------------------------|
D|--9h11-------------11-9--------11-9--------11-9-9h11-----------------------|
A|------------------------12----------12----------------12-11-12-------------|
E|---------------------------------------------------------------------------|

e|---------------------------------------------------------------------------|
B|---------------------------------------------------------------------------|
G|---------------------------------------------------------------------------|
D|--9-11--11/12\11--9-11-----------------------------------------------------|
A|---------------------------------------------------------------------------|
E|---------------------------------------------------------------------------|

e|---------------------------------------------------------------------------|
B|---------------------------------------------------------------------------|
G|-9-----------------9-------------------------------------------------------|
D|---11--11p9-9--------11--11p9-9--------------------------------------------|
A|---------------12---------------12--11-12----11------9------7--------------|
E|---------------------------------------------------------------------------|

e|---------------------------------------------------------------------------|
B|---------------------------------------------------------------------------|
G|--9---9h11-11--9-----------------------------------------------------------|
D|------------------11p9-11-11/12-11-----------------------------------------|
A|---------------------------------------------------------------------------|
E|---------------------------------------------------------------------------|

e|---------------------------------------------------------------------------|
B|---------------------------------------------------------------------------|
G|--9---------------9---------------9----------------------------------------|
D|----11--9-----------11--9-----------11--11p9-9------9-9h11------9-9h11-----|
A|----------h12-12----------h12-12----------------12----------12----------12-|
E|---------------------------------------------------------------------------|

e|---------------------------------------------------------------------------|
B|---------------------------------------------------------------------------|
G|--9-----------------9----------------9-----9-------------------------------|
D|----11--11p9-11-------11--11p9-9-------11----11--11-11-11-11--11/12\11p9---|
A|----------------12---------------12--------------------------------------12|
E|---------------------------------------------------------------------------|

e|---------------------------------------------------------------------------|
B|---------------------------------------------------------------------------|
G|----------------------------------------------------------9-11-9-----------|
D|--9h11-11--9-11-9-11--9-----9h11-11--11/12\11p9-----9h11--------11p9-------|
A|------------------------12----------------------12-------------------12-12-|
E|---------------------------------------------------------------------------|

e|---------------------------------------------------------------------------|
B|---------------------------------------------------------------------------|
G|---------------------------------------------------------------------------|
D|--9h11-11---9-11-9-11--11---9-11-9-11--9------9h11-11--11/12\11p9----------|
A|-----------------------------------------12-----------------------12-------|
E|---------------------------------------------------------------------------|

e|---------------------------------------------------------------------------|
B|------------10-9-----------------------------------------------------------|
G|-------9-11------9------------------------------9--------------------------|
D|--9h11-------------11-9-----9h11--9---------------11-9-11---12----12-11----|
A|------------------------12----------12--11--12-----------------------------|
E|---------------------------------------------------------------------------|

e|---------------------------------------------------------------------------|
B|---------------------------------------------------------------------------|
G|-----------------------9---------------------------------------------------|
D|--9----------------------11-9----------------------------------------------|
A|----12--11----11-12------------12----11----12------------------------------|
E|---------------------------------------------------------------------------|

e|---------------------------------------------------------------------------|
B|---------------------------------------------------------------------------|
G|---------------------------------------------------------------------------|
D|---------------------------------------------------------------------------|
A|--12---------7---------4---------------------------------------------------|
E|---------------------------------5-----------------------------------------|
Guitar Tab Creator is intended to store guitar tab created through the tool. It currently does not support in-line text editing. Any text you place in here will be lost. If you need to comment on your tab, please use the "Tab Notes" section located below.