The Doors - Roadhouse Blues

e|-----------------------------------------------------------------------------------|
B|-----------------------------------------------------------------------------------|
G|-----------------------------------------------------------------------------------|
D|-----------------------------------------------------------------------------------|
A|--------------------------------5h6h7--------------------------------5h6h7---------|
E|-0-0-0-0-0-0-5h6h7--0-0-0-0-0-0--------0-0-0-0-0-0-5h6h7-0-0-0-0-0-0---------------|


reapeat 2
e|----------------------------------------------------------------------------------|
B|----------------------------------------------------------------------------------|
G|----------------------------------------------------------------------------------|
D|-------------------------------------------------------5--------------------------|
A|-------------------------------5h6h7---------------------7p5-7--------------------|
E|-0-0-0-0-0-0-5h6h7-0-0-0-0-0-0-------0-0-0-0-0-0-5h6h7----------------------------|


e|---------------------------------------------------------------------------------|
B|---------------------------------------------------------------------------------|
G|---------------------------------------------------------------------------------|
D|-0---0---0---2---2-2-0---0------------------5--------0---0-----------------------|
A|---2---2---2---0-------2----------------------7p5-7----2-------------------------|
E|---------------------------3--0-0-0-0--5h6h7-------------------------------------|

reapeat 2
e|---------------------------------------------------------------------------------|
B|---------------------------------------------------------------------------------|
G|-3--3------------3--3------------3--2--------------------------------------------|
D|-1--1---0---0----1--1--0--0------1--1--------5-----------------------------------|
A|-2--2-----2------2--2----2-------2--2----------7p5-7-----------------------------|
E|--------------------------------------- 5h6h7------------------------------------|

e|-------------------------------------------------------------------------------|
B|-------------------------------------------------------------------------------|
G|-3--3---------3-3----------3--3------------------------------------------------|
D|-1--1--0---0--1-1---0---0--1--1--0-------5-------------------------------------|
A|-2--2----2----2-2-----2----3--2--0---------7p5-7-------------------------------|
E|------------------------------------5h6h7--------------------------------------|

reapeat above

e|------------------------------------------------------------------------------|
B|------------------------------------------------------------------------------|
G|----------------------------------------------------------reapeat-2-----------|
D|--0---------2---4--2--2--------2---4--2--2------2---4--2----------------------|
A|-2--0-0-3-4---0-------0--0-3-4---0----------3-4---0---------------------------|
E|------------------------------------------------------------------------------|


e|------------------------------------------------------------------------------|
B|-5--4-------------------------------------------------------------------------|
G|-5--4-------------------------------------------------------------------------|
D|-3--4-------------------------------------------------------------------------|
A|-3--2-------------------------------------------------------------------------|
E|------------------------------------------------------------------------------|

e|-15-12------------------------------------------------------------------------|
B|-------15-12------------------9---7-------------------------------------------|
G|-------------14-12----12/-----9---7-------------------------------------------|
D|-------------------14---------9---7-------------------------------------------|
A|------------------------------9---7-------------------------------------------|
E|------------------------------------------------------------------------------|
Guitar Tab Creator is intended to store guitar tab created through the tool. It currently does not support in-line text editing. Any text you place in here will be lost. If you need to comment on your tab, please use the "Tab Notes" section located below.