The Doors - People Are Strange

------------------|
------------------|
------------------|
------------------|
--2---0-----------|
-----------3(1/4)-|

---------------------------------------------------------------------|
---------------------------------------------------------------------|
----------0(let ring)------------2-0(let ring)---------------2-------|
-------2--------------2--------2---------------2-----------2---------|
----2-------------------2-1-0---------------------2--1--0------------|
-0-------------------------------------------------------------------|


---------------------------------------------------------------------|
---------------------------------------------------------------------|
--------------0------------------------------------------------------|
-2-(let ring)-----------------------1--------------------------------|
-2---------------0-1-2(slur)------2----------------2-0---------------|
--------------------------------2------0(let ring)-----3(1/4)--------|


----------------------------------------------------------------------|
----------------------------------------------------------------------|
-------0(let ring)----------2-0(let ring)----------2------------------|
-----2-------------2-------2-------------2-------2---2---2------------|
---2-----------------2-1-0-----------------2-1-0-----------0-1-2------|
-0-----------------------------------------------------0--------------|


--------------------------------2-------2-------3-------3------------|
--------------------------------0-------0-------3-------3------------|
----------------------0---------2-------2-------4-------4------------|
-----1--------------2------------------------------------------------|
---2--------------2--------------------------------------------------|
-2-----0(let ring)---------------------------------------------------|

(rests between all of these)
-------------7------7------3 -----3------7-----------------------------|
10(3/4)------7------7------3------3------7-----------------------------|
-------------8------8--------------------8-----------------------------|
-----------------------------------------------------------------------|
-----------------------------------------------------------------------|
-----------------------------------------------------------------------|

(rests between)
---7--------7------------| repeat this. 4x
---7--------7------------|
---8--------8------------|
-------------------------|
-------------------------|
-------------------------|

(rests between)
--12(2x)-----5--------12--------5--------12-------7--------7----------|
--12---------5--------12--------5--------12-------7--------0----------|
--12---------5--------12--------5--------12-------8-------------------|
----------------------------------------------------------------------|
----------------------------------------------------------------------|
----------------------------------------------------------------------|

Guitar Tab Creator is intended to store guitar tab created through the tool. It currently does not support in-line text editing. Any text you place in here will be lost. If you need to comment on your tab, please use the "Tab Notes" section located below.