Deliverance (Dueling Banjos)

Repeat 1x
(bend this first lone 4th fret off the edge of the guitar to make it sound authentic)
E|-----2---4---4-----------------------------------------------------||
B|-----3---5---------------------------------------------------------||
G|-----2---4---------------------------------------------------------||
D|-------------------------------------------------------------------||
A|-------------------------------------------------------------------||
E|-------------------------------------------------------------------||

Repeat 1x
E|-----------0---------------------0---------------------------------||
B|--------------------------0----------------------------------------||
G|------0-----------------0------------------------------------------||
D|--------------------0----------------------------------------------||
A|--0--------------0-------------------------------------------------||
E|--------------0----------------------------------------------------||

Repeat4x
E|----------------------------------------------------------------------||
B|-0-0-0-1-0----------3-3-3-5-3-----------------------------------------||
G|-0-0-0-0-0----------4-4-4-5-4-----------------------------------------||
D|-0-0-0-2-0----------0-0-0-0-0-----------------------------------------||
A|-------------- -------------------------------------------------------||
E|----------------------------------------------------------------------||

REPEAT 5x
E|-------------------------------------------------------------------||
B|-----------------------0-1-3-0-1---0-------------------------------||
G|-4-5-7-4-5---4-------------------2---0-2---------------------------||
D|-----------7---5-7-------------------------------------------------||
A|-------------------------------------------------------------------||
E|-------------------------------------------------------------------||
Repeat 1x
E|---------0---0-----------------------------------------------------||
B|---1-1-3---1---3---------------------------------------------------||
G|-0-----------------------------------------------------------------||
D|-------------------------------------------------------------------||
A|-------------------------------------------------------------------||
E|-------------------------------------------------------------------||

REPEAT 6x
E|-------------------------------------0-1-3-1-0---------------------||
B|-----------------------------1-1-1-3-------------------------------||
G|-------------------------------------------------------------------||
D|------------0------------------------------------------------------||
A|-------0-2-3--3-2--------------------------------------------------||
E|-3-3-3-------------------------------------------------------------||

Repeat2x
E|-------------------------------------------------------------------||
B|--------------------3-3-3-5-3--------------------------------------||
G|-0-0-0-1-0----------4-4-4-5-4--------------------------------------||
D|-0-0-0-0-0----------0-0-0-0-0--------------------------------------||
A|-0-0-0-2-0---------------------------------------------------------||
E|-------------------------------------------------------------------||

Repeat 3x
E|-------------------------------------------------------------------||
B|-----------------------0-1-3-0-1---0-------------------------------||
G|-4-5-7-4-5---4-------------------2---0-2---------------------------||
D|-----------7---5-7-------------------------------------------------||
A|-------------------------------------------------------------------||
E|-------------------------------------------------------------------||

SPEED IT UP
E|---------0---0-----------0--------------0-1------------------------||
B|---1-1-3---1---3---1-1-3---1--0---1-1-3-----3-1-0-----0-1--1-------||
G|-0---------------0--------------0-----------------0-2--------------||
D|-------------------------------------------------------------------||
A|-------------------------------------------------------------------||
E|-------------------------------------------------------------------||
Guitar Tab Creator is intended to store guitar tab created through the tool. It currently does not support in-line text editing. Any text you place in here will be lost. If you need to comment on your tab, please use the "Tab Notes" section located below.