Chris Thomas King (O' Brother Where Art Thou Soundtrack) - Hard Time Killing Floor Blues

Riff 1
|------------------------------------|
|---------------------1--3p1---1-----|
|-2--2-2--2-2--2-2--2-2------2-------|
|-3--0-2--0---------0----------------|
|-----------3--0-2-------------0-----|
|------------------------------------|

Riff 2
|-------------------------------------------|
|-------------------------------------------|
|-2-----2--2-2--2-2--2--2-----2--2-2--2-2---|
|-----0-3--0------3--0----------------------|
|-0h3--------3--0-----------0-3--0----0-----|
|-----------------------3h5--------5----3---|

Riff 3
|---------------------------------------------------------|
|---------------------------------------------1--3p1---1--|
|---------------------------------------2-----2------2----|
|-5\4------5/7\5---5--5\4------5\4----------0-------------|
|-----5-0--------5--------5-0------5-0--0h3------------0--|
|-------0-------------------------------------------------|

Riff 4
|---------------------------------------------------|
|---------------------------------------------------|
|-2-----2--2-2--2-2--2--2-----2--2------2--2-----2--|
|-----0-3--0------3--0--------3---------------------|
|-0h3--------3--0-----------0----0h2-0-----0h2-0----|
|-----------------------3h5-------------5--------3--|

Riff 5
|--------------------------------------------------
|--------------------------------------------------
|--------------------------------------------------
|-5\4------5/7\5---5--5/4------5/7\5---5--5\4------
|-----5-0--------5--------5-0--------5--------5-0--
|-------0------------------------------------------

-----------------------------------------|
-----------------------------------------|
-----------------------------------------|
-5/7\5---5--5\4------5/7\5---5--5\4------|
-------5--------5-0--------5--------5-0--|
-----------------------------------------|

Riff 4
|---------------------------------------------------|
|---------------------------------------------------|
|-2-----2--2-2--2-2--2--2-----2--2------2--2-----2--|
|-----0-3--0------3--0--------3---------------------|
|-0h3--------3--0-----------0----0h2-0-----0h2-0----|
|-----------------------3h5-------------5--------3--|

Riff 5
|--------------------------------------------------
|--------------------------------------------------
|--------------------------------------------------
|-5\4------5/7\5---5--5/4------5/7\5---5--5\4------
|-----5-0--------5--------5-0--------5--------5-0--
|-------0------------------------------------------

-----------------------------------------|
-----------------------------------------|
-----------------------------------------|
-5/7\5---5--5\4------5/7\5---5--5\4------|
-------5--------5-0--------5--------5-0--|
-----------------------------------------|

Riff 4
|---------------------------------------------------|
|---------------------------------------------------|
|-2-----2--2-2--2-2--2--2-----2--2------2--2-----2--|
|-----0-3--0------3--0--------3---------------------|
|-0h3--------3--0-----------0----0h2-0-----0h2-0----|
|-----------------------3h5-------------5--------3--|

Riff 5
|--------------------------------------------------
|--------------------------------------------------
|--------------------------------------------------
|-5\4------5/7\5---5--5/4------5/7\5---5--5\4------
|-----5-0--------5--------5-0--------5--------5-0--
|-------0------------------------------------------

-----------------------------------------|
-----------------------------------------|
-----------------------------------------|
-5/7\5---5--5\4------5/7\5---5--5\4------|
-------5--------5-0--------5--------5-0--|
-----------------------------------------|

Riff 4
|---------------------------------------------------|
|---------------------------------------------------|
|-2-----2--2-2--2-2--2--2-----2--2------2--2-----2--|
|-----0-3--0------3--0--------3---------------------|
|-0h3--------3--0-----------0----0h2-0-----0h2-0----|
|-----------------------3h5-------------5--------3--|

Riff 5
|--------------------------------------------------
|--------------------------------------------------
|--------------------------------------------------
|-5\4------5/7\5---5--5/4------5/7\5---5--5\4------
|-----5-0--------5--------5-0--------5--------5-0--
|-------0------------------------------------------

-----------------------------------------|
-----------------------------------------|
-----------------------------------------|
-5/7\5---5--5\4------5/7\5---5--5\4------|
-------5--------5-0--------5--------5-0--|
-----------------------------------------|

Riff 6
|-------------------------------------|
|-------------------------1--3p1---1--|
|-------------------2-----2------2----|
|----0----0----0--------0-------------|
|-3----2----1----0--0h3------------0--|
|-------------------------------------|

Riff 7
|---------------------------------------------------------------|
|---------------------------------------------------------------|
|-2-----2--2-----2--2-----2-2-2-2----2-----2--2-----2--2-----2--|
|-----0-3------0-2------0-3-2---0-------------------------------|
|-0h3------0h3------0h3-------3----------0-3--0h2-0----0h2-0----|
|---------------------------------0--3h5------------5--------3--|


Riff 5
|--------------------------------------------------
|--------------------------------------------------
|--------------------------------------------------
|-5\4------5/7\5---5--5/4------5/7\5---5--5\4------
|-----5-0--------5--------5-0--------5--------5-0--
|-------0------------------------------------------

-----------------------------------------|
-----------------------------------------|
-----------------------------------------|
-5/7\5---5--5\4------5/7\5---5--5\4------|
-------5--------5-0--------5--------5-0--|
-----------------------------------------|

Riff 4
|---------------------------------------------------|
|---------------------------------------------------|
|-2-----2--2-2--2-2--2--2-----2--2------2--2-----2--|
|-----0-3--0------3--0--------3---------------------|
|-0h3--------3--0-----------0----0h2-0-----0h2-0----|
|-----------------------3h5-------------5--------3--|

Riff 5
|--------------------------------------------------
|--------------------------------------------------
|--------------------------------------------------
|-5\4------5/7\5---5--5/4------5/7\5---5--5\4------
|-----5-0--------5--------5-0--------5--------5-0--
|-------0------------------------------------------

-----------------------------------------|
-----------------------------------------|
-----------------------------------------|
-5/7\5---5--5\4------5/7\5---5--5\4------|
-------5--------5-0--------5--------5-0--|
-----------------------------------------|
Guitar Tab Creator is intended to store guitar tab created through the tool. It currently does not support in-line text editing. Any text you place in here will be lost. If you need to comment on your tab, please use the "Tab Notes" section located below.