New tune tab.

(/) Slide Up  (\) Slide Down  (h) Hammer On  (p) Pull Off  (b) Bend (r) Release (v) Vibrato


E|------------------------------------------------------------
B|------------------------------------------------------------
G|--14--12--11--12--11--12--14------12----11--12--11--12--11--
D|--0---0---0---0---0---0---0-------0-----0---0---0---0---0---
A|------------------------------------------------------------
E|------------------------------------------------------------



E|---------------------------3--
B|--3----3--3--3--3--3--3-------
G|--2----2--0--0--2--2--2----2--
D|--0----0--0--0--0--0--0----0--
A|----------0--0----------------
E|----------3--3----------------



E|--
B|--
G|--
D|--
A|--
E|--
http://www.guitartabcreator.com
Guitar Tab Creator is intended to store guitar tab created through the tool. It currently does not support in-line text editing. Any text you place in here will be lost. If you need to comment on your tab, please use the "Tab Notes" section located below.