GimmeOneReasonSolo

(/) Slide Up  (\) Slide Down  (h) Hammer On  (p) Pull Off  (b) Bend (r) Release (v) Vibrato
E|------------------------|----------------5b6----r---------|--7/8--7p5--------5--7--7b8--|-----
B|------------------------|-------5--7--7-------------------|------------7--7-------------|-----
G|-----4b6--4--4p2--------|--4/6----------------------------|-----------------------------|-----
D|--4---------------4--4--|---------------------------------|-----------------------------|-----
A|------------------------|---------------------------------|-----------------------------|-----
E|------------------------|---------------------------------|-----------------------------|-----



E|--7--5--------5b6--|-------------9b11--9------------|---------------7--9------------------|--
B|--------7----------|-------7--9-----------10--9--7--|--------10b11--------10b11-----7--7--|--
G|-----------6-------|--6/8---------------------------|-----8----------------------8--------|--
D|-------------------|--------------------------------|-------------------------------------|--
A|-------------------|--------------------------------|-------------------------------------|--
E|-------------------|--------------------------------|-------------------------------------|--



E|------------9---11--12--|---------12-------------------------|--12-----------------------|-----
B|-----10b11--10--12--14--|--12b14------12--10--10--12--10h12--|------12b13r10--10--12--10b|-----
G|--8---------------------|------------------------------------|---------------------------|-----
D|------------------------|------------------------------------|---------------------------|-----
A|------------------------|------------------------------------|---------------------------|-----
E|------------------------|------------------------------------|---------------------------|-----



E|----------------|--------------|--
B|-------7-----5--|--------------|--
G|--4/6-----6-----|--6--4--------|--
D|----------------|--------7--4--|--
A|----------------|--------------|--
E|----------------|--------------|--
http://www.guitartabcreator.com
Guitar Tab Creator is intended to store guitar tab created through the tool. It currently does not support in-line text editing. Any text you place in here will be lost. If you need to comment on your tab, please use the "Tab Notes" section located below.