BeforeTheDawn

(/) Slide Up  (\) Slide Down  (h) Hammer On  (p) Pull Off  (b) Bend (r) Release (v) Vibrato


E|--------------------|--------------------|-----9-----4-----5-----5--|--9------10--9------9--|--
B|--------------------|--------------------|--------------------------|-----12---------12-----|--
G|--6--4--7--6--4--6--|--6--4--7--6--4-----|--6-----4-----1-----1-----|-----------------------|--
D|--------------------|-----------------7--|--------------------------|-----------------------|--
A|--------------------|--------------------|--------------------------|-----------------------|--
E|--------------------|--------------------|--------------------------|-----------------------|--



E|--9------10--9----------|--12--9-------------|--
B|-----12---------12--10--|---------12--9--10--|--
G|------------------------|--------------------|--
D|------------------------|--------------------|--
A|------------------------|--------------------|--
E|------------------------|--------------------|--
http://www.guitartabcreator.com
Guitar Tab Creator is intended to store guitar tab created through the tool. It currently does not support in-line text editing. Any text you place in here will be lost. If you need to comment on your tab, please use the "Tab Notes" section located below.