Truckstop Solo

(/) Slide Up  (\) Slide Down  (h) Hammer On  (p) Pull Off  (b) Bend (r) Release (v) Vibrato


E|----------------------------------------------------------------------------------------
B|-----------------8h9p8------8-----------------------11h13p11--9p8h9--11--9--8--9--8-----
G|--------8h10b11---------10-----10--8--10b11--8--12-----------------------------------8--
D|--8h10----------------------------------------------------------------------------------
A|----------------------------------------------------------------------------------------
E|----------------------------------------------------------------------------------------



E|-------------11h13b14--13--13b14--14r13--11--11---------------------------
B|------11h13--------------------------------------13--13--11--9--8--9--11--
G|--13----------------------------------------------------------------------
D|--------------------------------------------------------------------------
A|--------------------------------------------------------------------------
E|--------------------------------------------------------------------------



E|---------------------------------------------------------------------------------
B|--8h9h11r9r8--------11\8---------------------------------------------------------
G|--------------8/12--------8/10--8--8-----8--8-----------8--8--10b11--8--------8--
D|--------------------------------------8--------8--8h10---------------------------
A|---------------------------------------------------------------------------------
E|---------------------------------------------------------------------------------



E|---------------------------11----------11--------------11--13b14--13--11h13p11--------------------
B|-------------------------------11----------11------11---------------------------13--11--8h9r8-----
G|--10/15--13p12--13p12-----------------------------------------------------------------------------
D|-----------------------13----------13----------13-------------------------------------------------
A|--------------------------------------------------------------------------------------------------
E|--------------------------------------------------------------------------------------------------
http://www.guitartabcreator.com
Guitar Tab Creator is intended to store guitar tab created through the tool. It currently does not support in-line text editing. Any text you place in here will be lost. If you need to comment on your tab, please use the "Tab Notes" section located below.