Major Chord Variations

(/) Slide Up  (\) Slide Down  (h) Hammer On  (p) Pull Off  (b) Bend (r) Release (v) Vibrato
E|----0----5----12---------9-----9-----
B|----2----5----14----5----10----10----
G|----2----6----14----6----9-----9-----
D|----2----7----14----7----7-----11----
A|----0----7----12---------------12----
E|---------5---------------------------



E|----7----2----11----11----7---------
B|----7----4----12----12----4----7----
G|----8----4----11----11----4----8----
D|----9----4----9-----13----4----9----
A|----9----2----------14--------------
E|----7-------------------------------



E|----0----------8-----3----12----8----
B|----1----8-----8-----5----13----5----
G|----0----9-----9-----5----12----5----
D|----2----10----10----5----10----5----
A|----3----------10----3---------------
E|---------------8---------------------



E|----2----10----5----14----2----10----10----
B|----3----10----7----15----3----7-----10----
G|----2----11----7----14----2----7-----11----
D|----0----12----7----12----4----7-----12----
A|---------12----5----------5----------------
E|---------10--------------------------------



E|----0----12----7----4----4----12----------
B|----0----12----9----5----5----9-----12----
G|----1----13----9----4----4----9-----13----
D|----2----14----9----2----6----9-----14----
A|----2----14----7---------7----------------
E|----0----12-------------------------------



E|----1----1----13----8-----5----5----13----
B|----1----1----13----10----6----6----10----
G|----2----2----14----10----5----5----10----
D|----3----3----15----10----7----3----10----
A|---------3----15----8-----8---------------
E|---------1----13--------------------------



E|--3--15--10--7--7---3--3--
B|--0--15--12--8--8---0--3--
G|--0--16--12--7--7---0--4--
D|--0--17--12--5--9---0--5--
A|--2--17--10-----10--------
E|--3--15-------------------
http://www.guitartabcreator.com
Guitar Tab Creator is intended to store guitar tab created through the tool. It currently does not support in-line text editing. Any text you place in here will be lost. If you need to comment on your tab, please use the "Tab Notes" section located below.