cherry cola

(/) Slide Up  (\) Slide Down  (h) Hammer On  (p) Pull Off  (b) Bend (r) Release (v) Vibrato

E|-----------------------------|--------------|-----------------------------------------------|--
B|-----------------------------|--------------|-----------------------------------------------|--
G|-----------------------------|--------------|-----------------------------------------------|--
D|--------------------5--------|--------------|-----------------------------------------------|--
A|--5--3--5--5--3--5-----6--3--|--3-----2-----|--------------------------------------2--3--5--|--
E|-----------------------------|-----4-----3--|--0--0--0--0--0--0--0--0--0--0--0--0-----------|--



E|-----------------------------------------------------------------------------------------|-----
B|-----------------------------------------------------------------------------------------|-----
G|-----------------------------------------------------------------------------------------|-----
D|-----------------------------------------------------------------------------------------|-----
A|--------------------------------------2--3--5--5--7--8--------------7-----5-----8-----5--|-----
E|--0--0--0--0--0--0--0--0--0--0--0--0--------------------0--0--0--0-----0-----0-----0-----|-----



E|-----------------------|--------------------------------|--
B|-----------------------|--------------------------------|--
G|-----------------------|--------------------------------|--
D|--8--7--5--------------|--------------------------------|--
A|-----------8--7--5--7--|--------8--7--8--------7--5--8--|--
E|-----------------------|--0--0-----------0--0-----------|--
http://www.guitartabcreator.com
Guitar Tab Creator is intended to store guitar tab created through the tool. It currently does not support in-line text editing. Any text you place in here will be lost. If you need to comment on your tab, please use the "Tab Notes" section located below.