Cutout

(/) Slide Up  (\) Slide Down  (h) Hammer On  (p) Pull Off  (b) Bend (r) Release (v) Vibrato
E|----------------------------
B|----------------------------
G|-----6-------6-------9------
D|-----7p7-----7p7-----10p10--
A|--5---------------8---------
E|----------5-----------------



E|--------------------------------------
B|--------------------------------------
G|-----6-------6-------9---------9------
D|-----7p7-----7p7-----10p10-----10p10--
A|--5---------------8---------8---------
E|----------5---------------------------



E|------------------------------------
B|-----6-------6----------------------
G|-----7p7-----7p7-------------9------
D|--5------------------6-------10p10--
A|----------5----------7p7--8---------
E|------------------5-----------------



E|------------------------------------
B|-----6-------6----------------------
G|-----7p7-----7p7--------------------
D|--5------------------6-------9------
A|----------5----------7p7-----10p10--
E|------------------5-------8---------



E|--------------------------------------------------
B|--------------------------------------------------
G|--------------------------------------------------
D|--7--7--7--7--7--7--7--7--7--0--0--0--0--0--0--0--
A|--0--0--0--0--0--0--7--7--7--7--7--7--7--7--7--7--
E|--0--0--0--8--8--8--8--8--8--8--8--8--8--8--8--8--



E|---------------------------------------------------------------
B|---------------------------------------------------------------
G|--2--2----5--5----8--8--7--7----2--2----5--5----8--8--7--5--0--
D|--2--2----5--5----8--8--7--7----2--2----5--5----8--8--7--5--0--
A|--0--0----3--3----6--6--5--5----0--0----3--3----6--6--5--3--0--
E|---------------------------------------------------------------



E|--
B|--
G|--
D|--
A|--
E|--
http://www.guitartabcreator.com
Guitar Tab Creator is intended to store guitar tab created through the tool. It currently does not support in-line text editing. Any text you place in here will be lost. If you need to comment on your tab, please use the "Tab Notes" section located below.