Triumph

(/) Slide Up  (\) Slide Down  (h) Hammer On  (p) Pull Off  (b) Bend (r) Release (v) Vibrato
E|-----------------------------------------------------------------------------------------
B|-----------------------------------------------------------------------------------------
G|-----------------------------------------------------------------------------------------
D|--------0--------0--------0--------0---------0-----------0--------0---------0---------0--
A|-----8--------8--------8--------8--------10-----------8--------8--------12--------10-----
E|--0--------0--------0--------0--------0---------0--0--------0--------0---------0---------



E|-----------------------------------------------------------------------------------------
B|-----------------------------------------------------------------------------------------
G|-----------------------------------------------------------------------------------------
D|-----0----------------0--------0--------0--------0---------0-----------0--------0--------
A|--8-----8v---------8--------8--------8--------8--------10-----------8--------8--------8--
E|----------------0--------0--------0--------0--------0---------0--0--------0--------0-----



E|----------------------------------------------------------------------------------------------
B|----------------------------------------------------------------------------------------------
G|----------------------------------------------------------------------------------------------
D|----------------------------------0--------0-----------0-----------0-----------0-----------0--
A|--8--8--8--8--8--8--8v---------8--------8--------8h10--------8h10--------8h10-----------8-----
E|--0--0--0--0--0--0----------0--------0--------0-----------0-----------0-----------0--0--------



E|------------------------------------------------------------------------------------------------
B|------------------------------------------------------------------------------------------------
G|------------------------------------------------------------------------------------------------
D|--------0------------0------------0--------0----------------0--------0-----------0-----------0--
A|-----8--------10h12--------10h12-----8h10-----8v---------8--------8--------8h10--------8h10-----
E|--0--------0------------0-----------------------------0--------0--------0-----------0-----------



E|---------------------------------------------------------------------------------------
B|---------------------------------------------------------------------------------------
G|---------------------------------------------------------------------------------------
D|-----------0-----------0--------0-----10--8--7--5------0--0-------------------0--0--0--
A|-----8h10-----------8--------8--------10--8--7--5------0--0--------3/8--7v----0--0--0--
E|--0-----------0--0--------0--------0--10--8--7--5------0--0--0--0-------------0--0--0--



E|------------------------------------------------------------------------------------------
B|------------------------------------------------------------------------------------------
G|------------------------------------------------------------------------------------------
D|--------------------------------0--0------------------10--10------------------------0--0--
A|--------------------------------0--0--------3/8--7----10--10--10--10--8--8--7v------0--0--
E|--0--0--8--7--0--0--7--5--0--0--0--0--0--0------------10--10------------------------0--0--



E|-----------------------------------------------------------------------------------------
B|-----------------------------------------------------------------------------------------
G|-----------------------------------------------------------------------------------------
D|-------------------0--0--0--------------------------------0--0-------------------10--10--
A|--------3/8--7v----0--0--0--------------------------------0--0--------3/8--7v----10--10--
E|--0--0-------------0--0--0--0--0--8--7--0--0--7--5--0--0--0--0--0--0-------------10--10--



E|-----------------------------------------------------------------------------------------
B|-----------------------------------------------------------------------------------------
G|-----------------------------------------------------------------------------------------
D|--------------------0--0--------0--0-----0--0-----------------------0--0--------0--0-----
A|--10--10--8--8--7v--0--0--------0--0-----0--0--------------1--1--1--0--0--------0--0-----
E|--------------------0--0--0--0--0--0--0--0--0--0--0--0--0--0--0--0--0--0--0--0--0--0--0--



E|-------------------------------------------------------------------------------------------
B|-------------------------------------------------------------------------------------------
G|-------------------------------------------------------------------------------------------
D|--0--0--------------------------0--0--------0--0-----0--0-------------------------0--0-----
A|--0--0--2/10--10--8--8--7v------0--0--------0--0-----0--0--------------1--1--1----0--0-----
E|--0--0--------------------------0--0--0--0--0--0--0--0--0--0--0--0--0--0--0--0----0--0--0--



E|---------------------------------------------------------------------------------------------
B|---------------------------------------------------------------------------------------------
G|---------------------------------------------------------------------------------------------
D|-----0--0-----0--0------------------------0--0------------------------12--12-----------------
A|-----0--0-----0--0--2/10--10--8--8--7v----0--0--------8h10h12--10--8--12--12--------8h10h12--
E|--0--0--0--0--0--0------------------------0--0--0--0------------------12--12--0--0-----------



E|-----------------------------------------------------------------------------------------------
B|-----------------------------------------------------------------------------------------------
G|---------------------------------------------------------10--10--10----------------------------
D|---------10--10--------------------------8----8----8--8--8---8---8---0----0--0-----------------
A|--10--8--10--10----------8h10h12--10--8--8----8----8--8--8---8---8---0----0--0--------8h10h12--
E|---------10--10----0--0------------------8----8----8--8--8---8---8---0----0--0--0--0-----------



E|-------------------------------------------------------------------------------------------------
B|-------------------------------------------------------------------------------------------------
G|-------------------------------------------------------------------------------------10--10--10--
D|---------12--12------------------------10--10------------------------8----8----8--8--8---8---8---
A|--10--8--12--12--------8h10h12--10--8--10--10--------8h10h12--10--8--8----8----8--8--8---8---8---
E|---------12--12--0--0------------------10--10--0--0------------------8----8----8--8--8---8---8---



E|-------------------------------------------------------------------------------------------------
B|-------------------------------------------------------------------------------------------------
G|--9----9--9--9--9--10--9-------------------------------------------------------------------------
D|--7----7--7--7--7--8---7-------0--0------------------0----------0------------------------0----0--
A|--7----7--7--7--7--8---7-------0--0--------2/8--5----0----------0--------2/8--5--7--3----0----0--
E|--7----7--7--7--7--8---7--8\2--0--0--0--0------------0----0--0--0--0--0------------------0----0--



E|-------------------------------------------------------------------------------------------------
B|-------------------------------------------------------------------------------------------------
G|-------------------------------------------------------------------------------------------------
D|------------------0----------0--------------------------------------0----0------------------0----
A|--------2/8--5----0----------0--------5h8p5h8p5h8p5--3h7p3h7p3h7p3--0----0--------2/8--5----0----
E|--0--0------------0----0--0--0--0--0--------------------------------0----0--0--0------------0----



E|-------------------------------------------------------------------------------------------------
B|-------------------------------------------------------------------------------------------------
G|-------------------------------------------------------------------------------------------------
D|--------0------------------------0----0------------------0----------0----------------------------
A|--------0--------2/8--5--7--3----0----0--------2/8--5----0----------0--------5h8p5h8p5h8p5--3h7--
E|--0--0--0--0--0------------------0----0--0--0------------0----0--0--0--0--0----------------------



E|--------------------------------------------------------------------------------------------------
B|--------------------------------------------------------------------------------------------------
G|--------------------------------------------------------------------------------------------------
D|----------------------------------------------------------------3h5p3-----3-----------------------
A|--3h7p3h7p3-----------5--3--5--7--5--8--7--8-----------7--3--7---------7-----5--7-----------5--3--
E|-------------0--0--0--------------------------0--0--0------------------------------0--0--0--------



E|------------------------------------------------------------------------------------------------
B|------------------------------------------------------------------------------------------------
G|------------------------------------3-----------------------------------------------------------
D|-----------------3h5p3-----3--5--7-----7--5--3--------------------------------------------------
A|--5--7--8--7--8---------7-----------------------7--5-----------5--3--5--7--5--8--7--8-----------
E|------------------------------------------------------0--0--0--------------------------0--0--0--



E|-------------------------------------------------------------------------------------------------
B|-------------------------------------------------------------------------------------------------
G|-------------------------------------------------------------------------------------3-----------
D|-----------3h5p3-----3--------------------------------------------3h5p3-----3--5--7-----7--5--3--
A|--7--3--7---------7-----5--7-----------5--3--5--7--5--7--8--7--8---------7-----------------------
E|------------------------------0--0--0------------------------------------------------------------



E|--------------------------------------------------------------------------------------------------
B|--------------------------------------------------------------------------------------------------
G|--------------------------------------------------------------------------------------------------
D|-------5--------3--------2--------0--------------------0--------0--------0--------0---------0-----
A|--7----5--------3--------2--------0-----------------8--------8--------8--------8--------10--------
E|-------5--------3--------2--------0--------------0--------0--------0--------0--------0------------



E|--------------------------------------------------------------------------------------------------
B|--------------------------------------------------------------------------------------------------
G|--------------------------------------------------------------------------------------------------
D|-----------0--------0---------0---------0-----0--0------------0--------0--------0--------0--------
A|--------8--------8--------12--------10-----8-----8---------8--------8--------8--------8-----------
E|--0--0--------0--------0---------0---------------0------0--------0--------0--------0--------0-----



E|------------------------------------------------------------------------------------------------
B|------------------------------------------------------------------------------------------------
G|------------------------------------------------------------------------------------------------
D|------0-----------------0------------------0----------------------------------------------------
A|--10---------------8----------------8-----------------------------------------------------------
E|---------0----0--------------0------------------12NH----------------------------------------------
http://www.guitartabcreator.com
Guitar Tab Creator is intended to store guitar tab created through the tool. It currently does not support in-line text editing. Any text you place in here will be lost. If you need to comment on your tab, please use the "Tab Notes" section located below.