My song

(/) Slide Up  (\) Slide Down  (h) Hammer On  (p) Pull Off  (b) Bend (r) Release (v) Vibrato

E|--------7-----------7-----------7-----------7-----
B|-----9-----9-----9-----9-----9-----9-----9-----9--
G|--9-----------9-----------8-----------8-----------
D|--------------------------------------------------
A|--------------------------------------------------
E|--------------------------------------------------



E|----------12--------------12--------------11--------------11------
B|------14------14------14------14------12------12------12------12--
G|--13--------------13--------------11--------------11--------------
D|------------------------------------------------------------------
A|------------------------------------------------------------------
E|------------------------------------------------------------------



E|----
B|----
G|----
D|----
A|----
E|----
http://www.guitartabcreator.com
Guitar Tab Creator is intended to store guitar tab created through the tool. It currently does not support in-line text editing. Any text you place in here will be lost. If you need to comment on your tab, please use the "Tab Notes" section located below.