Billie Jean Verse Chords

(/) Slide Up  (\) Slide Down  (h) Hammer On  (p) Pull Off  (b) Bend (r) Release (v) Vibrato


E|--0----2--3----2----|--0----2--3----2----|--
B|--0----2--3----2----|--0----2--3----2----|--
G|--0----2--0----2----|--0----2--0----2----|--
D|--------------------|--------------------|--
A|--------------------|--------------------|--
E|--------------------|--------------------|--



E|--5----5--5----5----|--5----5--5----5----|--
B|--5----5--5----5----|--5----5--5----5----|--
G|--5----5--5----5----|--5----5--5----5----|--
D|--------------------|--------------------|--
A|--------------------|--------------------|--
E|--------------------|--------------------|--
http://www.guitartabcreator.com
Guitar Tab Creator is intended to store guitar tab created through the tool. It currently does not support in-line text editing. Any text you place in here will be lost. If you need to comment on your tab, please use the "Tab Notes" section located below.