Billie Jean Bass Line

(/) Slide Up  (\) Slide Down  (h) Hammer On  (p) Pull Off  (b) Bend (r) Release (v) Vibrato


E|--------------------------|--------------------------|-----
B|--------------------------|--------------------------|-----
G|--------------------------|--------------------------|-----
D|--2-----0--2--0-----------|--2-----0--2--0-----------|-----
A|-----2-----------2--0--2--|-----2-----------2--0--2--|-----
E|--------------------------|--------------------------|-----



E|-------------------------|-------------------------|--
B|-------------------------|-------------------------|--
G|--2-----0--2-------------|--2-----0--2-------------|--
D|-----2----------2--0--2--|-----2----------2--0--2--|--
A|-------------------------|-------------------------|--
E|-------------------------|-------------------------|--
http://www.guitartabcreator.com
Guitar Tab Creator is intended to store guitar tab created through the tool. It currently does not support in-line text editing. Any text you place in here will be lost. If you need to comment on your tab, please use the "Tab Notes" section located below.