Joe Bonamassa Short Solo (Lesson) (EZLicks)

(/) Slide Up  (\) Slide Down  (h) Hammer On  (p) Pull Off  (b) Bend (r) Release (v) Vibrato


E|---------------------------------12--10---------------------------------------------------------
B|--17b20--17--15--13--12--13--15----------13--12b13r12--10--8-----10--8--------8--5--------------
G|--------------------------------------------------------------9---------9--7--------7--5--------
D|------------------------------------------------------------------------------------------7-----
A|------------------------------------------------------------------------------------------------
E|------------------------------------------------------------------------------------------------



E|--------------------------------------------------------------------------------------------------
B|--------------------------------------------------------------------------------------------------
G|--5/7--9--7---------------------------------------------------5--7/8\7p5-----7--5-----------------
D|-------------10--7\5-----7--5---------------------------5--7--------------7--------7-----5--7-----
A|----------------------7--------7--6--5\3--5-----3/5--7--------------------------------7-----------
E|---------------------------------------------5----------------------------------------------------



E|-------------------
B|-------------------
G|--5--7--7p5--7/9v--
D|-------------------
A|-------------------
E|-------------------
http://www.guitartabcreator.com
Guitar Tab Creator is intended to store guitar tab created through the tool. It currently does not support in-line text editing. Any text you place in here will be lost. If you need to comment on your tab, please use the "Tab Notes" section located below.