Joe Bonamassa Inspired guitar lesson 4 (MrAndMore)

(/) Slide Up  (\) Slide Down  (h) Hammer On  (p) Pull Off  (b) Bend (r) Release (v) Vibrato

E|-------------------------------------------------------------------------------------------------
B|-------------------------------------------------------------------------------------------------
G|----------------9-----7h9--7-----9--7------------------------------------------------------------
D|--------5--7/9-----9----------9--------9\7--5--7/9\7--5--7/9\7--5-----7--5----------------------
A|--5--7--------------------------------------------------------------7--------7--5-----7----------
E|-----------------------------------------------------------------------------------7-----7\5--3--



E|----------------------------------------------------------------------12-------------12----------
B|------------------------------------------------------------------12------12--15b17------15--12--
G|---------------------------------7-----------9---------12--14b16---------------------------------
D|-------------------5--5--5--7/9-----9--9/12-----12/14--------------------------------------------
A|-------5--5--5--7--------------------------------------------------------------------------------
E|--5/7--------------------------------------------------------------------------------------------



E|----------------------------------------------------------------------------------------------------
B|------15--12------------------------------------------------------------------------------------12--
G|--14----------14--12------14--12------------------------------------------------------------13------
D|----------------------14----------14--12--------------------------------------12/14\12--14----------
A|------------------------------------------14--13--12----------11--14--12--14------------------------
E|------------------------------------------------------15--12----------------------------------------



E|----------------------------------------------------------------------------------------------------
B|--15--14b15r14--12----------------------------------------------------------------------------------
G|--------------------12\11-----------------14---------12---------11---------9--------7---------------
D|---------------------------14--12----------------------------------------------------------------5--
A|-----------------------------------14/16------16\14------14\12------12\10-----10\9-----9\3--5/7-----
E|----------------------------------------------------------------------------------------------------



E|------------------------------------------------
B|---------------8--------10------3--10--8--8--7--
G|-------5--7/9-----9/11------11--3--9---9--7--7--
D|--5/7---------------------------3--7---7--7--7--
A|------------------------------------------------
E|------------------------------------------------
http://www.guitartabcreator.com
Guitar Tab Creator is intended to store guitar tab created through the tool. It currently does not support in-line text editing. Any text you place in here will be lost. If you need to comment on your tab, please use the "Tab Notes" section located below.