Joe Bonamassa (EJ Influenced)

(/) Slide Up  (\) Slide Down  (h) Hammer On  (p) Pull Off  (b) Bend (r) Release (v) Vibrato


E|------15v----------------------15v--------17------------------------------15--17b19--17b19--17--15--
B|---------------18------15--18-----------------18------15v----------15h18----------------------------
G|-------------------17-----------------------------17-----------17-----------------------------------
D|----------------------------------------------------------------------------------------------------
A|----------------------------------------------------------------------------------------------------
E|--15------------------------------------------------------------------------------------------------



E|-------------------15--------------------------------------------------------------------------
B|--18--15--18v----------18--15------18--15------18--15------------------------------------------
G|-------------------------------17----------17----------17--15----------17--15------------------
D|---------------------------------------------------------------17--15----------17--15----------
A|---------------------------------------------------------------------------------------17--15--
E|-----------------------------------------------------------------------------------------------



E|------------------------------
B|------------------------------
G|------------------------------
D|--17--15------------------17--
A|----------17--15--------------
E|------------------18--15------
http://www.guitartabcreator.com
Guitar Tab Creator is intended to store guitar tab created through the tool. It currently does not support in-line text editing. Any text you place in here will be lost. If you need to comment on your tab, please use the "Tab Notes" section located below.