Joe Bonamassa Blues Lick #5 (EZLicks)

(/) Slide Up  (\) Slide Down  (h) Hammer On  (p) Pull Off  (b) Bend (r) Release (v) Vibrato

E|--------------------13v--15--18b20r18p15------18--15v------------------------
B|------11--13p11/15------------------------15-----------18------15------------
G|--12-------------------------------------------------------17------15\5p3b5--
D|-----------------------------------------------------------------------------
A|-----------------------------------------------------------------------------
E|-----------------------------------------------------------------------------



E|--------------------------------------------
B|--------------------------------------------
G|-----------0-----------------------------0--
D|--5-----3-----0--------------------------0--
A|-----5-----------3/5\3\1-----3-----1--------
E|--------------------------3-----3-----3-----
http://www.guitartabcreator.com
Guitar Tab Creator is intended to store guitar tab created through the tool. It currently does not support in-line text editing. Any text you place in here will be lost. If you need to comment on your tab, please use the "Tab Notes" section located below.