Gary Moore, Peter Green, BB King inspired lick (lesson) (MrAndMore)

(/) Slide Up  (\) Slide Down  (h) Hammer On  (p) Pull Off  (b) Bend (r) Release (v) Vibrato
E|-------------------------------------------12--------------------------------------------------
B|-------------------------12--14b16--14b16------16r14p12--14------12----12--17b19r17\15p12--12--
G|--------11--11v--13--(11)------------------------------------13--------------------------------
D|--0/13-----------------------------------------------------------------------------------------
A|-----------------------------------------------------------------------------------------------
E|-----------------------------------------------------------------------------------------------



E|----------------------------------------------------------------------------------14b16-----
B|--------12--15b17--15b17v------17b19r17\15p12--12--------12--15b17--12--14b16p12------------
G|--0/13---------------------------------------------0/13-------------------------------------
D|--------------------------------------------------------------------------------------------
A|--------------------------------------------------------------------------------------------
E|--------------------------------------------------------------------------------------------



E|----------------------------------12--14------------------------19--|----------------------------
B|--14b16--14--12--------12--15b17----------14b16--12--14p12--12--19--|-----10---------------------
G|-----------------0/13-----------------------------------------------|--7--10--10\9p7-----9--7h8--
D|--------------------------------------------------------------------|--6--------------9----------
A|--------------------------------------------------------------------|--7-------------------------
E|--------------------------------------------------------------------|----------------------------



E|--------------------------------------
B|--------------------------------------
G|----------------7h9----------9--------
D|--9p7----------------9p7-----8--8--7--
A|-------9p8p7\6------------9--9--7--6--
E|--------------------------------8--7--
http://www.guitartabcreator.com
Guitar Tab Creator is intended to store guitar tab created through the tool. It currently does not support in-line text editing. Any text you place in here will be lost. If you need to comment on your tab, please use the "Tab Notes" section located below.