Bonamassa Style Lick - YoungBlueProductions

(/) Slide Up  (\) Slide Down  (h) Hammer On  (p) Pull Off  (b) Bend (r) Release (v) Vibrato


E|--------------------------8--10--------------------------
B|------------8--11--10b11---------11b13r11--8-------------
G|--7--10b11------------------------------------10--11p7v--
D|---------------------------------------------------------
A|---------------------------------------------------------
E|---------------------------------------------------------



E|----------------------10--13--10-------------------------------------------------12--
B|--------------11--13--------------13--11------13--11----------11-------------13------
G|------10--12------------------------------12----------12--10------12--10/12----------
D|--12---------------------------------------------------------------------------------
A|-------------------------------------------------------------------------------------
E|-------------------------------------------------------------------------------------



E|---------15-----------------
B|--18b20------18--15--18b20--
G|----------------------------
D|----------------------------
A|----------------------------
E|----------------------------



E|------------------------------------------------------------------------------
B|--18--15----------------------------------------------------------------------
G|----------17--15----------17--15----------------------------------------------
D|------------------17--15----------17--15----------17--15------------------17--
A|------------------------------------------17--15----------17--15--------------
E|------------------------------------------------------------------18--15------
http://www.guitartabcreator.com
Guitar Tab Creator is intended to store guitar tab created through the tool. It currently does not support in-line text editing. Any text you place in here will be lost. If you need to comment on your tab, please use the "Tab Notes" section located below.