Bonamassa "Blues Deluxe" Lick

(/) Slide Up  (\) Slide Down  (h) Hammer On  (p) Pull Off  (b) Bend (r) Release (v) Vibrato


E|--8-------------------------------------------------8--10--9p8---------11b13--11b12--8-----
B|-----8h10--8---------------------------------8--11--------------11--8-------------------8--
G|--------------8\7---------------------8--10------------------------------------------------
D|-------------------10----------7--10-------------------------------------------------------
A|-----------------------10p9p8--------------------------------------------------------------
E|-------------------------------------------------------------------------------------------



E|-------------------------------
B|-------------------------------
G|--10/11\10p8------8~~~~-10b12--
D|--------------10---------------
A|-------------------------------
E|-------------------------------
http://www.guitartabcreator.com
Guitar Tab Creator is intended to store guitar tab created through the tool. It currently does not support in-line text editing. Any text you place in here will be lost. If you need to comment on your tab, please use the "Tab Notes" section located below.