Aynsley Lister Blues Lick (EzLicks)

(/) Slide Up  (\) Slide Down  (h) Hammer On  (p) Pull Off  (b) Bend (r) Release (v) Vibrato


E|----------2---------------2-----5b6--5b6--5b6--5b6--2----------------------
B|-------2-----5b6--2--5b6-----2-------------------------5--2-----2----------
G|--2h3--------------------------------------------------------4-----2b3-----
D|------------------------------------------------------------------------4--
A|---------------------------------------------------------------------------
E|---------------------------------------------------------------------------



E|----------2----------------------
B|-------2-----5--2-----2----------
G|--2h3--------------4-----2b3-----
D|------------------------------4--
A|---------------------------------
E|---------------------------------
http://www.guitartabcreator.com
Guitar Tab Creator is intended to store guitar tab created through the tool. It currently does not support in-line text editing. Any text you place in here will be lost. If you need to comment on your tab, please use the "Tab Notes" section located below.