License to Drive

(/) Slide Up  (\) Slide Down  (h) Hammer On  (p) Pull Off  (b) Bend (r) Release (v) Vibrato

E|-----------------------------------------
B|-----------------------------------------
G|-----------------------------------------
D|-----------------------------------------
A|-----------------------------------------
E|--5--5--5--5--5--5--5--5--5--5--5--5--5--



E|---------------------------------------------------------------------------------------------
B|---------------------------------------------------------------------------------------------
G|---------------------------------------------------------------------------------------------
D|---------------------------------------------------------------------------------------------
A|----------------------------7----9----7----5--5--5--5--5--5--5--5----------------------------
E|--5--5--5--5--5--5--5--5---------------------------------------------5--5--5--5--5--5--5-----



E|----------------------------------------------------------------------------------------
B|----------------------------------------------------------------------------------------
G|----------------------------------------------------------------------------------------
D|----------------------------------------------------------------------------------------
A|----------------------------7----9----7----5--5--5--5--5--5--5--5----7--7----7--7----7--
E|--5--5--5--5--5--5--5--5----------------------------------------------------------------



E|--------------------------------------------------------------------------------------------
B|--------------------------------------------------------------------------------------------
G|--------------------------------------------------------------------------------------------
D|--------------------------------------------------------------------------------------------
A|--5--5--5--5--5--5--5----7--7--7--7--7--7--7----9--9--9--9--9--9--9----9----11----12----14--
E|--------------------------------------------------------------------------------------------



E|-----------------------------------------------------------------------------------
B|-----------------------------------------------------------------------------------
G|-----------------------------------------------------------------------------------
D|-----------------------------------------------------------------------------------
A|--5--5--5--5--5--5--5----7--7--7--7--7--7--7----10--10--10--10--10--10--10--10-----
E|-----------------------------------------------------------------------------------



E|------------------------------------------------------------------------------------------
B|------------------------------------------------------------------------------------------
G|------------------------------------------------------------------------------------------
D|--------------------7--7------------------------------------------------------------------
A|--------------------------7--7--7--7--7--7--7--7--9--9--9--9--9--9--12--5--5--5--5--5--5--
E|--5--5--5--5--5--5------------------------------------------------------------------------



E|--------------------------------------------------------------------------------------------
B|--------------------------------------------------------------------------------------------
G|--------------------------------------------------------------------------------------------
D|--------------------7--7--------------------------------------------------------------------
A|--------------------------7--7--7--7--7--7--7--7--9--9--9----7----5----5--5--5--5--5--5--5--
E|--5--5--5--5--5--5--------------------------------------------------------------------------



E|-----------------------------------------------------------------------------------------------
B|-----------------------------------------------------------------------------------------------
G|-----------------------------------------------------------------------------------------------
D|-----------------------------------------------------------------------------------------------
A|--2--2--2--2--2--2--2--2--4--4--4--4--4--4--4--4--5--5--5--5--5--5--5--5--7--7--7--7--7--7-----
E|-----------------------------------------------------------------------------------------------



E|-----------------------------------------
B|-----------------------------------------
G|-----------------------------------------
D|-----------------------------------------
A|-----------------------------------------
E|--5--5--5--5--5--5--5--5--5--5--5--5--5--



E|-------------------------------------------------------------------------------------------
B|-------------------------------------------------------------------------------------------
G|-------------------------------------------------------------------------------------------
D|-------------------------------------------------------------------------------------------
A|--9--9--9--9--9--9--12--12--5--5--5--5--5--5--7--7--------------------4--5--7--7--7--7--7--
E|----------------------------------------------------5--5--5--5--5--5-----------------------



E|------------------------------------------------------------------------------------------
B|------------------------------------------------------------------------------------------
G|------------------------------------------------------------------------------------------
D|------------------------------------------------------------------------------------------
A|--7--8--8--9--9--9--9--9--9--12--12--5--5--5--5--5--5--7--7--2--2--2--2--2--2--4--5-------
E|---------------------------------------------------------------------------------------5--
http://www.guitartabcreator.com
Guitar Tab Creator is intended to store guitar tab created through the tool. It currently does not support in-line text editing. Any text you place in here will be lost. If you need to comment on your tab, please use the "Tab Notes" section located below.