Game of Thrones

(/) Slide Up  (\) Slide Down  (h) Hammer On  (p) Pull Off  (b) Bend (r) Release (v) Vibrato
E|----------------|--
B|--8-------------|--
G|---------9--10--|--
D|-----10---------|--
A|----------------|--
E|----------------|--



E|-------------------------------|--
B|-------------------------------|--
G|-------------------------------|--
D|-------------------------------|--
A|--10-----6--8--10-----6--8--5--|--
E|------8------------8-----------|--



E|----------------|--
B|----------------|--
G|--7-------------|--
D|---------8--10--|--
A|-----10---------|--
E|----------------|--



E|-----------------------------
B|-----------------------------
G|-----------------------------
D|-----------------------------
A|--8-----5--6--8-----5--6--3--
E|-----6-----------6-----------



E|--------------|--
B|--------------|--
G|--6-----------|--
D|--------7--9--|--
A|-----9--------|--
E|--------------|--
http://www.guitartabcreator.com
Guitar Tab Creator is intended to store guitar tab created through the tool. It currently does not support in-line text editing. Any text you place in here will be lost. If you need to comment on your tab, please use the "Tab Notes" section located below.