Lindsey Stirling - Shadows

(/) Slide Up  (\) Slide Down  (h) Hammer On  (p) Pull Off  (b) Bend (r) Release (v) Vibrato

E|---------------------------------------------------------------------------------
B|--15------------------13--16--15--13---------------------------------------------
G|------14--12--14--15------------------15--14--12---------------------------------
D|--------------------------------------------------12--15--13--13--12--10--8--10--
A|---------------------------------------------------------------------------------
E|---------------------------------------------------------------------------------



E|------------------------------------------------------------------------------15-----
B|------------------------------------------------------13------------------15---------
G|--------------------------------------12--12--14--15------15--14--12--15-------------
D|----------10--12--10--------------12-------------------------------------------------
A|--10--13--------------13--10--13-----------------------------------------------------
E|-------------------------------------------------------------------------------------



E|--15--17--15--13--15--13--10--13--10----------
B|--------------------------------------11--10--
G|----------------------------------------------
D|----------------------------------------------
A|----------------------------------------------
E|----------------------------------------------
http://www.guitartabcreator.com
Guitar Tab Creator is intended to store guitar tab created through the tool. It currently does not support in-line text editing. Any text you place in here will be lost. If you need to comment on your tab, please use the "Tab Notes" section located below.