Dusk

(/) Slide Up  (\) Slide Down  (h) Hammer On  (p) Pull Off  (b) Bend (r) Release (v) Vibrato


E|-------------------------------------------------------------------------------------------
B|-------------------------------------------------------------------------------------------
G|-------------------------------------------------------------------------------------------
D|------------9--9--11--9-----------------9--9--11--9-----------------9--9--11--9------------
A|-----9--11---------------9b9-----9--11---------------9b9-----9--11---------------9b9/7-----
E|--0---------------------------0---------------------------0--------------------------------



E|---------------------------------------------------------------------------------------------
B|---------------------------------------------------------------------------------------------
G|---------------------------------------------------------------------------------------------
D|---------------------------------------------------------------------------------------------
A|-----7-----7-----7-----7\9-----9-----9-----9h11-----11-----9-----9-----9h11-----11-----9-----
E|--0-----0-----0-----0-------0-----0-----0--------0------0-----0-----0--------0------0-----0--



E|---------------------------------------
B|---------------------------------------
G|---------------------------------------
D|------------------9--9--11--9----------
A|--7--------9--11---------------9b9-----
E|-----0--0---------------------------0--
http://www.guitartabcreator.com
Guitar Tab Creator is intended to store guitar tab created through the tool. It currently does not support in-line text editing. Any text you place in here will be lost. If you need to comment on your tab, please use the "Tab Notes" section located below.