Satyricon - K.I.N.G. Bass tabs

(/) Slide Up  (\) Slide Down  (h) Hammer On  (p) Pull Off  (b) Bend (r) Release (v) Vibrato


E|--------------------------------|--
B|--------------------------------|--
G|--------------------6--6--6--6--|--
D|--5--5--5--5--5--5--4--4--4--4--|--
A|--------------------------------|--
E|--------------------------------|--



E|--------------------------------|--
B|--------------------------------|--
G|--------------------------------|--
D|--5--5--5--------------3--3--6--|--
A|--------------------------------|--
E|-----------6--6--5--5-----------|--



E|--------------------------------------------------|--
B|--------------------------------------------------|--
G|--------------------------------------6--6--6--6--|--
D|--5--5--5--5--5--5--5--5--3--5--6--5--4--4--4--4--|--
A|--------------------------------------------------|--
E|--------------------------------------------------|--



E|--------------------------------------------------|--
B|--------------------------------------------------|--
G|--------------------------------------------------|--
D|--5--5--6--5--3--5--3--5--3--3--3--3--6-----------|--
A|-----------------------------------------1--1--3--|--
E|--------------------------------------------------|--



E|--------------------------------------------------|--
B|--------------------------------------------------|--
G|--------------------------------------6--6--6--6--|--
D|--------------------------------------4--4--4--4--|--
A|--------------------------------------------------|--
E|--3--3--3--3--3--3--3--3--1--3--4--3--------------|--



E|-----------------------------------------|--
B|-----------------------------------------|--
G|-----------------------------------------|--
D|--------------------3--3-----------------|--
A|--5--5--0--0--1--3--------4--4--6--5--5--|--
E|-----------------------------------------|--



E|--------------------------------------------------|--
B|--------------------------------------------------|--
G|--------------------------------------------------|--
D|--------------------------3--3--3--3--3-----------|--
A|--5--5--5--5--5--------------------------4--4--6--|--
E|-----------------5--5--6--------------------------|--
http://www.guitartabcreator.com
Guitar Tab Creator is intended to store guitar tab created through the tool. It currently does not support in-line text editing. Any text you place in here will be lost. If you need to comment on your tab, please use the "Tab Notes" section located below.