Terminator Bass Tab

(/) Slide Up  (\) Slide Down  (h) Hammer On  (p) Pull Off  (b) Bend (r) Release (v) Vibrato


G|--13-------------------------1--------------1----9----------
D|--------2--------------------2----------------------11------
A|--9--------4---------2--2-------------------------------11--
E|--------------2---------------------4--2----2---------------




G|-------------------------------------
D|--2------------2---------------------
A|-----2--0---------2--0---------------
E|----------------------------4--5--2--
http://www.guitartabcreator.com
Guitar Tab Creator is intended to store guitar tab created through the tool. It currently does not support in-line text editing. Any text you place in here will be lost. If you need to comment on your tab, please use the "Tab Notes" section located below.