Terminator

(/) Slide Up  (\) Slide Down  (h) Hammer On  (p) Pull Off  (b) Bend (r) Release (v) Vibrato

E|------------------------------------------------------
B|-----2------------------------------------------------
G|--4-----4--2--1---------1-----------------------------
D|-------------------1h2-----2p1----------2-------------
A|-------------------------------------2-----2-------2--
E|----------------------------------4-----------4----2--



E|--------------------------------
B|--------------------------------
G|--------------------------------
D|-------2---------------4--------
A|--2h4-----2-------4h6-----6-----
E|-------------4---------------5--

Chorus

E|------------0--0--0--0-------------------
B|------------0--0--0--0-------------------
G|--1----1----1--1--1--1----------------4--
D|--1----1----2--2--2--2----4/6----6----6--
A|--------------------------------------0--
E|--2----2----2--2--2--2-------------------
http://www.guitartabcreator.com
Guitar Tab Creator is intended to store guitar tab created through the tool. It currently does not support in-line text editing. Any text you place in here will be lost. If you need to comment on your tab, please use the "Tab Notes" section located below.